  0
SECTION
  2
HEADER
  9
$ACADVER
  1
AC1009
  9
$DWGCODEPAGE
  3
ansi_1252
  9
$INSBASE
 10
0.0
 20
0.0
 30
0.0
  9
$EXTMIN
 10
0.0
 20
0.0
 30
0.0
  9
$EXTMAX
 10
200.9878030678031
 20
254.0
 30
0.0000000000004547
  9
$LIMMIN
 10
0.0
 20
0.0
  9
$LIMMAX
 10
12.0
 20
9.0
  9
$ORTHOMODE
 70
     0
  9
$REGENMODE
 70
     1
  9
$FILLMODE
 70
     1
  9
$QTEXTMODE
 70
     0
  9
$MIRRTEXT
 70
     1
  9
$DRAGMODE
 70
     2
  9
$LTSCALE
 40
1.0
  9
$OSMODE
 70
    37
  9
$ATTMODE
 70
     1
  9
$TEXTSIZE
 40
0.2
  9
$TRACEWID
 40
0.05
  9
$TEXTSTYLE
  7
STANDARD
  9
$CLAYER
  8
DEFAULT
  9
$CELTYPE
  6
BYLAYER
  9
$CECOLOR
 62
   256
  9
$DIMSCALE
 40
1.0
  9
$DIMASZ
 40
0.18
  9
$DIMEXO
 40
0.0625
  9
$DIMDLI
 40
0.38
  9
$DIMRND
 40
0.0
  9
$DIMDLE
 40
0.0
  9
$DIMEXE
 40
0.18
  9
$DIMTP
 40
0.0
  9
$DIMTM
 40
0.0
  9
$DIMTXT
 40
0.18
  9
$DIMCEN
 40
0.09
  9
$DIMTSZ
 40
0.0
  9
$DIMTOL
 70
     0
  9
$DIMLIM
 70
     0
  9
$DIMTIH
 70
     1
  9
$DIMTOH
 70
     1
  9
$DIMSE1
 70
     0
  9
$DIMSE2
 70
     0
  9
$DIMTAD
 70
     0
  9
$DIMZIN
 70
     0
  9
$DIMBLK
  1

  9
$DIMASO
 70
     1
  9
$DIMSHO
 70
     1
  9
$DIMPOST
  1

  9
$DIMAPOST
  1

  9
$DIMALT
 70
     0
  9
$DIMALTD
 70
     2
  9
$DIMALTF
 40
25.4
  9
$DIMLFAC
 40
1.0
  9
$DIMTOFL
 70
     0
  9
$DIMTVP
 40
0.0
  9
$DIMTIX
 70
     0
  9
$DIMSOXD
 70
     0
  9
$DIMSAH
 70
     0
  9
$DIMBLK1
  1

  9
$DIMBLK2
  1

  9
$DIMSTYLE
  2
STANDARD
  9
$DIMCLRD
 70
     0
  9
$DIMCLRE
 70
     0
  9
$DIMCLRT
 70
     0
  9
$DIMTFAC
 40
1.0
  9
$DIMGAP
 40
0.09
  9
$LUNITS
 70
     2
  9
$LUPREC
 70
     3
  9
$SKETCHINC
 40
0.1
  9
$FILLETRAD
 40
0.5
  9
$AUNITS
 70
     0
  9
$AUPREC
 70
     0
  9
$MENU
  1
.
  9
$ELEVATION
 40
0.0
  9
$PELEVATION
 40
0.0
  9
$THICKNESS
 40
0.0
  9
$LIMCHECK
 70
     0
  9
$CHAMFERA
 40
0.5
  9
$CHAMFERB
 40
0.5
  9
$SKPOLY
 70
     0
  9
$TDCREATE
 40
2456601.806224606
  9
$TDUPDATE
 40
2456601.806246123
  9
$TDINDWG
 40
0.0000000116
  9
$TDUSRTIMER
 40
0.0000000116
  9
$USRTIMER
 70
     1
  9
$ANGBASE
 50
0.0
  9
$ANGDIR
 70
     0
  9
$PDMODE
 70
     0
  9
$PDSIZE
 40
0.0
  9
$PLINEWID
 40
0.0
  9
$COORDS
 70
     1
  9
$SPLFRAME
 70
     0
  9
$SPLINETYPE
 70
     6
  9
$SPLINESEGS
 70
     8
  9
$ATTDIA
 70
     0
  9
$ATTREQ
 70
     1
  9
$HANDLING
 70
     1
  9
$HANDSEED
  5
386
  9
$SURFTAB1
 70
     6
  9
$SURFTAB2
 70
     6
  9
$SURFTYPE
 70
     6
  9
$SURFU
 70
     6
  9
$SURFV
 70
     6
  9
$UCSNAME
  2

  9
$UCSORG
 10
0.0
 20
0.0
 30
0.0
  9
$UCSXDIR
 10
1.0
 20
0.0
 30
0.0
  9
$UCSYDIR
 10
0.0
 20
1.0
 30
0.0
  9
$PUCSNAME
  2

  9
$PUCSORG
 10
0.0
 20
0.0
 30
0.0
  9
$PUCSXDIR
 10
1.0
 20
0.0
 30
0.0
  9
$PUCSYDIR
 10
0.0
 20
1.0
 30
0.0
  9
$USERI1
 70
     0
  9
$USERI2
 70
     0
  9
$USERI3
 70
     0
  9
$USERI4
 70
     0
  9
$USERI5
 70
     0
  9
$USERR1
 40
0.0
  9
$USERR2
 40
0.0
  9
$USERR3
 40
0.0
  9
$USERR4
 40
0.0
  9
$USERR5
 40
0.0
  9
$WORLDVIEW
 70
     1
  9
$SHADEDGE
 70
     3
  9
$SHADEDIF
 70
    70
  9
$TILEMODE
 70
     1
  9
$MAXACTVP
 70
    64
  9
$PLIMCHECK
 70
     0
  9
$PEXTMIN
 10
1.000000000000000E+20
 20
1.000000000000000E+20
 30
1.000000000000000E+20
  9
$PEXTMAX
 10
-1.000000000000000E+20
 20
-1.000000000000000E+20
 30
-1.000000000000000E+20
  9
$PLIMMIN
 10
0.0
 20
0.0
  9
$PLIMMAX
 10
12.0
 20
9.0
  9
$UNITMODE
 70
     0
  9
$VISRETAIN
 70
     1
  9
$PLINEGEN
 70
     0
  9
$PSLTSCALE
 70
     1
  0
ENDSEC
  0
SECTION
  2
TABLES
  0
TABLE
  2
VPORT
 70
     1
  0
VPORT
  2
*ACTIVE
 70
     0
 10
0.0
 20
0.0
 11
1.0
 21
1.0
 12
100.4939015339015
 22
127.0
 13
0.0
 23
0.0
 14
0.5
 24
0.5
 15
0.5
 25
0.5
 16
0.0
 26
0.0
 36
1.0
 17
0.0
 27
0.0
 37
0.0
 40
259.08
 41
0.7912905632590674
 42
50.0
 43
0.0
 44
0.0
 50
0.0
 51
0.0
 71
     0
 72
   100
 73
     1
 74
     3
 75
     0
 76
     0
 77
     0
 78
     0
  0
ENDTAB
  0
TABLE
  2
LTYPE
 70
     1
  0
LTYPE
  2
CONTINUOUS
 70
     0
  3
Solid line
 72
    65
 73
     0
 40
0.0
  0
ENDTAB
  0
TABLE
  2
LAYER
 70
     2
  0
LAYER
  2
0
 70
     0
 62
     7
  6
CONTINUOUS
  0
LAYER
  2
DEFAULT
 70
     0
 62
     7
  6
CONTINUOUS
  0
ENDTAB
  0
TABLE
  2
STYLE
 70
     1
  0
STYLE
  2
STANDARD
 70
     0
 40
0.0
 41
1.0
 50
0.0
 71
     0
 42
0.2
  3
txt
  4

  0
ENDTAB
  0
TABLE
  2
VIEW
 70
     0
  0
ENDTAB
  0
TABLE
  2
UCS
 70
     0
  0
ENDTAB
  0
TABLE
  2
APPID
 70
     1
  0
APPID
  2
ACAD
 70
     0
  0
ENDTAB
  0
TABLE
  2
DIMSTYLE
 70
     1
  0
DIMSTYLE
  2
STANDARD
 70
     0
  3

  4

  5

  6

  7

 40
1.0
 41
0.18
 42
0.0625
 43
0.38
 44
0.18
 45
0.0
 46
0.0
 47
0.0
 48
0.0
140
0.18
141
0.09
142
0.0
143
25.4
144
1.0
145
0.0
146
1.0
147
0.09
 71
     0
 72
     0
 73
     1
 74
     1
 75
     0
 76
     0
 77
     0
 78
     0
170
     0
171
     2
172
     0
173
     0
174
     0
175
     0
176
     0
177
     0
178
     0
  0
ENDTAB
  0
ENDSEC
  0
SECTION
  2
BLOCKS
  0
BLOCK
  8
0
  2
$MODEL_SPACE
 70
     0
 10
0.0
 20
0.0
 30
0.0
  3
$MODEL_SPACE
  1

  0
ENDBLK
  5
21
  8
0
  0
BLOCK
 67
     1
  8
0
  2
$PAPER_SPACE
 70
     0
 10
0.0
 20
0.0
 30
0.0
  3
$PAPER_SPACE
  1

  0
ENDBLK
  5
1D
 67
     1
  8
0
  0
ENDSEC
  0
SECTION
  2
ENTITIES
  0
LINE
  5
41
  8
DEFAULT
 10
147.7999999970198
 20
156.3000000044703
 30
0.0000000000003411
 11
146.4663506921529
 21
154.3899983071489
 31
0.0000000000003411
  0
LINE
  5
42
  8
DEFAULT
 10
146.4663506921529
 20
154.3899983071489
 30
0.0000000000003411
 11
145.0679928752516
 21
152.5268497977559
 31
0.0000000000003411
  0
LINE
  5
43
  8
DEFAULT
 10
145.0679928752516
 20
152.5268497977559
 30
0.0000000000003411
 11
143.6065711650402
 21
150.712745738705
 31
0.0000000000003411
  0
LINE
  5
44
  8
DEFAULT
 10
143.6065711650402
 20
150.712745738705
 30
0.0000000000003411
 11
142.0838043501435
 21
148.9498197108775
 31
0.0000000000003411
  0
LINE
  5
45
  8
DEFAULT
 10
142.0838043501435
 20
148.9498197108775
 30
0.0000000000003411
 11
140.5014833676065
 21
147.2401451043029
 31
0.0000000000003411
  0
LINE
  5
46
  8
DEFAULT
 10
140.5014833676065
 20
147.2401451043029
 30
0.0000000000003411
 11
138.8614691965612
 21
145.5857326796298
 31
0.0000000000003411
  0
LINE
  5
47
  8
DEFAULT
 10
138.8614691965612
 20
145.5857326796298
 30
0.0000000000003411
 11
137.1656906695147
 21
143.9885282032553
 31
0.0000000000003411
  0
LINE
  5
48
  8
DEFAULT
 10
137.1656906695147
 20
143.9885282032553
 30
0.0000000000003411
 11
135.4161422038361
 21
142.4504101588959
 31
0.0000000000003411
  0
LINE
  5
49
  8
DEFAULT
 10
135.4161422038361
 20
142.4504101588959
 30
0.0000000000003411
 11
120.5783211677004
 21
130.0
 31
0.0000000000003411
  0
LINE
  5
4A
  8
DEFAULT
 10
120.5783211677004
 20
130.0
 30
0.0000000000003411
 11
0.0
 21
130.0
 31
0.0000000000003411
  0
LINE
  5
4B
  8
DEFAULT
 10
0.0
 20
130.0
 30
0.0000000000003411
 11
0.0
 21
196.9091952774355
 31
0.0000000000003411
  0
LINE
  5
4C
  8
DEFAULT
 10
0.0
 20
196.9091952774355
 30
0.0000000000003411
 11
50.5838578040935
 21
243.5495898602607
 31
0.0000000000003411
  0
LINE
  5
4D
  8
DEFAULT
 10
50.5838578040935
 20
243.5495898602607
 30
0.0000000000003411
 11
58.23271728605685
 21
249.1223987570916
 31
0.0000000000003411
  0
LINE
  5
4E
  8
DEFAULT
 10
58.23271728605685
 20
249.1223987570916
 30
0.0000000000003411
 11
61.43713105015643
 21
250.8497611835523
 31
0.0000000000003411
  0
LINE
  5
4F
  8
DEFAULT
 10
61.43713105015643
 20
250.8497611835523
 30
0.0000000000003411
 11
64.69395205141124
 21
252.4761576572588
 31
0.0000000000003411
  0
LINE
  5
50
  8
DEFAULT
 10
64.69395205141124
 20
252.4761576572588
 30
0.0000000000003411
 11
68.0
 21
254.0
 31
0.0000000000003411
  0
LINE
  5
51
  8
DEFAULT
 10
68.0
 20
254.0
 30
0.0000000000003411
 11
73.53574415290433
 21
210.2378288748555
 31
0.0000000000004547
  0
LINE
  5
52
  8
DEFAULT
 10
147.7999999970198
 20
156.3000000044703
 30
0.0000000000003411
 11
106.5960149573891
 21
170.8381323603255
 31
0.0000000000004547
  0
CIRCLE
  5
53
  8
DEFAULT
 10
15.0
 20
167.0681818181822
 30
0.0000000000002274
 40
2.5
  0
CIRCLE
  5
54
  8
DEFAULT
 10
127.3812970827544
 20
152.0259656978832
 30
0.0000000000002274
 40
2.0
  0
CIRCLE
  5
55
  8
DEFAULT
 10
35.00000000000006
 20
167.0681818181822
 30
0.0000000000003411
 40
2.5
  0
CIRCLE
  5
56
  8
DEFAULT
 10
35.00000000000006
 20
152.0
 30
0.0000000000003411
 40
2.5
  0
CIRCLE
  5
57
  8
DEFAULT
 10
58.61870292517517
 20
233.9740343212735
 30
0.0000000000003411
 40
2.0
  0
CIRCLE
  5
58
  8
DEFAULT
 10
15.0
 20
152.0
 30
0.0000000000002274
 40
2.5
  0
LINE
  5
59
  8
DEFAULT
 10
31.5
 20
155.8000000044701
 30
0.0000000000003411
 11
31.5
 21
163.1999999955294
 31
0.0000000000003411
  0
LINE
  5
5A
  8
DEFAULT
 10
31.5
 20
163.1999999955294
 30
0.0000000000003411
 11
38.5
 21
163.1999999955294
 31
0.0000000000003411
  0
LINE
  5
5B
  8
DEFAULT
 10
38.5
 20
163.1999999955294
 30
0.0000000000003411
 11
38.5
 21
155.8000000044701
 31
0.0000000000003411
  0
LINE
  5
5C
  8
DEFAULT
 10
38.5
 20
155.8000000044701
 30
0.0000000000003411
 11
31.5
 21
155.8000000044701
 31
0.0000000000003411
  0
LINE
  5
5D
  8
DEFAULT
 10
11.5
 20
155.8000000044701
 30
0.0000000000003411
 11
11.5
 21
163.1999999955294
 31
0.0000000000003411
  0
LINE
  5
5E
  8
DEFAULT
 10
11.5
 20
163.1999999955294
 30
0.0000000000003411
 11
18.5
 21
163.1999999955294
 31
0.0000000000003411
  0
LINE
  5
5F
  8
DEFAULT
 10
18.5
 20
163.1999999955294
 30
0.0000000000003411
 11
18.5
 21
155.8000000044701
 31
0.0000000000003411
  0
LINE
  5
60
  8
DEFAULT
 10
18.5
 20
155.8000000044701
 30
0.0000000000003411
 11
11.5
 21
155.8000000044701
 31
0.0000000000003411
  0
LINE
  5
61
  8
DEFAULT
 10
11.5
 20
134.6180139070666
 30
0.0000000000003411
 11
11.5
 21
142.0180138981259
 31
0.0000000000003411
  0
LINE
  5
62
  8
DEFAULT
 10
11.5
 20
142.0180138981259
 30
0.0000000000003411
 11
18.5
 21
142.0180138981259
 31
0.0000000000003411
  0
LINE
  5
63
  8
DEFAULT
 10
18.5
 20
142.0180138981259
 30
0.0000000000003411
 11
18.5
 21
134.6180139070666
 31
0.0000000000003411
  0
LINE
  5
64
  8
DEFAULT
 10
18.5
 20
134.6180139070666
 30
0.0000000000003411
 11
11.5
 21
134.6180139070666
 31
0.0000000000003411
  0
LINE
  5
65
  8
DEFAULT
 10
31.49999999999994
 20
134.6180139070666
 30
0.0000000000003411
 11
31.49999999999994
 21
142.0180138981259
 31
0.0000000000003411
  0
LINE
  5
66
  8
DEFAULT
 10
31.49999999999994
 20
142.0180138981259
 30
0.0000000000003411
 11
38.49999999999994
 21
142.0180138981259
 31
0.0000000000003411
  0
LINE
  5
67
  8
DEFAULT
 10
38.49999999999994
 20
142.0180138981259
 30
0.0000000000003411
 11
38.49999999999994
 21
134.6180139070666
 31
0.0000000000003411
  0
LINE
  5
68
  8
DEFAULT
 10
38.49999999999994
 20
134.6180139070666
 30
0.0000000000003411
 11
31.49999999999994
 21
134.6180139070666
 31
0.0000000000003411
  0
ARC
  5
69
  8
DEFAULT
 10
93.0
 20
193.0
 30
0.0000000000004547
 40
26.0
 50
138.4714305559756
 51
301.5285694280597
  0
ARC
  5
6A
  8
DEFAULT
 10
92.23395556084563
 20
192.3572123998916
 30
0.0
 40
41.0
 50
310.8733186444342
 51
311.3975966282469
  0
ARC
  5
6B
  8
DEFAULT
 10
124.2573747407208
 20
201.1065631481979
 30
0.0000000000001421
 40
49.04275608583868
 50
130.2282922986187
 51
157.1624084731682
  0
ARC
  5
6C
  8
DEFAULT
 10
156.3560206153913
 20
163.4627633092582
 30
0.0000000000000284
 40
33.46895931664503
 50
272.3756718886847
 51
308.9943236272382
  0
ARC
  5
6D
  8
DEFAULT
 10
135.0000000039648
 20
188.0000000095783
 30
0.0000000000000284
 40
65.98780306383836
 50
310.0000000000001
 51
130.0
  0
LINE
  5
6E
  8
DEFAULT
 10
103.4363670307862
 20
228.7275206544086
 30
0.0000000000000284
 11
100.3721892583103
 21
226.1563702156624
 31
0.0000000000000284
  0
LINE
  5
6F
  8
DEFAULT
 10
100.3721892583103
 20
226.1563702156624
 30
0.0000000000000284
 11
100.3185414432572
 21
226.112910032374
 31
0.0000000000000284
  0
LINE
  5
70
  8
DEFAULT
 10
100.3185414432572
 20
226.112910032374
 30
0.0000000000000284
 11
100.2634255170356
 21
226.0713274606862
 31
0.0000000000000284
  0
LINE
  5
71
  8
DEFAULT
 10
100.2634255170356
 20
226.0713274606862
 30
0.0000000000000284
 11
100.2069071623363
 21
226.0316720553357
 31
0.0000000000000284
  0
LINE
  5
72
  8
DEFAULT
 10
100.2069071623363
 20
226.0316720553357
 30
0.0000000000000284
 11
100.1490537331507
 21
225.9939910744181
 31
0.0000000000000284
  0
LINE
  5
73
  8
DEFAULT
 10
100.1490537331507
 20
225.9939910744181
 30
0.0000000000000284
 11
100.0899341745037
 21
225.9583294230708
 31
0.0000000000000284
  0
LINE
  5
74
  8
DEFAULT
 10
100.0899341745037
 20
225.9583294230708
 30
0.0000000000000284
 11
100.0296189402905
 21
225.9247295999575
 31
0.0000000000000284
  0
LINE
  5
75
  8
DEFAULT
 10
100.0296189402905
 20
225.9247295999575
 30
0.0000000000000284
 11
99.96817990931561
 21
225.8932316466224
 31
0.0000000000000284
  0
LINE
  5
76
  8
DEFAULT
 10
99.96817990931561
 20
225.8932316466224
 30
0.0000000000000284
 11
99.90569029963328
 21
225.8638730997716
 31
0.0000000000000284
  0
LINE
  5
77
  8
DEFAULT
 10
99.90569029963328
 20
225.8638730997716
 30
0.0000000000000284
 11
99.84222458129229
 21
225.8366889465404
 31
0.0000000000000284
  0
LINE
  5
78
  8
DEFAULT
 10
99.84222458129229
 20
225.8366889465404
 30
0.0000000000000284
 11
99.77785838758854
 21
225.8117115827978
 31
0.0000000000000284
  0
LINE
  5
79
  8
DEFAULT
 10
99.77785838758854
 20
225.8117115827978
 30
0.0000000000000284
 11
99.71266842493148
 21
225.7889707745402
 31
0.0000000000000284
  0
LINE
  5
7A
  8
DEFAULT
 10
99.71266842493148
 20
225.7889707745402
 30
0.0000000000000284
 11
99.64673238143155
 21
225.7684936224187
 31
0.0000000000000284
  0
LINE
  5
7B
  8
DEFAULT
 10
99.64673238143155
 20
225.7684936224187
 30
0.0000000000000284
 11
99.58012883431783
 21
225.7503045294422
 31
0.0000000000000284
  0
LINE
  5
7C
  8
DEFAULT
 10
99.58012883431783
 20
225.7503045294422
 30
0.0000000000000284
 11
99.51293715629608
 21
225.7344251718968
 31
0.0000000000000284
  0
LINE
  5
7D
  8
DEFAULT
 10
99.51293715629608
 20
225.7344251718968
 30
0.0000000000000284
 11
99.44523742095878
 21
225.7208744735127
 31
0.0000000000000284
  0
LINE
  5
7E
  8
DEFAULT
 10
99.44523742095878
 20
225.7208744735127
 30
0.0000000000000284
 11
99.3771103073599
 21
225.7096685829135
 31
0.0000000000000284
  0
LINE
  5
7F
  8
DEFAULT
 10
99.3771103073599
 20
225.7096685829135
 30
0.0000000000000284
 11
99.30863700386818
 21
225.7008208543706
 31
0.0000000000000284
  0
LINE
  5
80
  8
DEFAULT
 10
99.30863700386818
 20
225.7008208543706
 30
0.0000000000000284
 11
99.23989911141342
 21
225.6943418318894
 31
0.0000000000000284
  0
LINE
  5
81
  8
DEFAULT
 10
99.23989911141342
 20
225.6943418318894
 30
0.0000000000000284
 11
99.170978546241
 21
225.6902392366435
 31
0.0000000000000284
  0
LINE
  5
82
  8
DEFAULT
 10
99.170978546241
 20
225.6902392366435
 30
0.0000000000000284
 11
99.10195744229094
 21
225.688517957773
 31
0.0000000000000284
  0
LINE
  5
83
  8
DEFAULT
 10
99.10195744229094
 20
225.688517957773
 30
0.0000000000000284
 11
99.03291805331713
 21
225.6891800465586
 31
0.0000000000000284
  0
LINE
  5
84
  8
DEFAULT
 10
99.03291805331713
 20
225.6891800465586
 30
0.0000000000000284
 11
98.96394265486413
 21
225.6922247139765
 31
0.0000000000000284
  0
LINE
  5
85
  8
DEFAULT
 10
98.96394265486413
 20
225.6922247139765
 30
0.0000000000000284
 11
98.89511344621776
 21
225.6976483316391
 31
0.0000000000000284
  0
LINE
  5
86
  8
DEFAULT
 10
98.89511344621776
 20
225.6976483316391
 30
0.0000000000000284
 11
98.82651245244668
 21
225.7054444361187
 31
0.0000000000000284
  0
LINE
  5
87
  8
DEFAULT
 10
98.82651245244668
 20
225.7054444361187
 30
0.0000000000000284
 11
98.75822142665157
 21
225.7156037366502
 31
0.0000000000000284
  0
LINE
  5
88
  8
DEFAULT
 10
98.75822142665157
 20
225.7156037366502
 30
0.0000000000000284
 11
98.69032175253847
 21
225.7281141262033
 31
0.0000000000000284
  0
LINE
  5
89
  8
DEFAULT
 10
98.69032175253847
 20
225.7281141262033
 30
0.0000000000000284
 11
98.62289434743212
 21
225.7429606959101
 31
0.0000000000000284
  0
LINE
  5
8A
  8
DEFAULT
 10
98.62289434743212
 20
225.7429606959101
 30
0.0000000000000284
 11
98.55601956584546
 21
225.7601257528332
 31
0.0000000000000284
  0
LINE
  5
8B
  8
DEFAULT
 10
98.55601956584546
 20
225.7601257528332
 30
0.0000000000000284
 11
98.48977710371948
 21
225.7795888410498
 31
0.0000000000000284
  0
LINE
  5
8C
  8
DEFAULT
 10
98.48977710371948
 20
225.7795888410498
 30
0.0000000000000284
 11
98.42424590344814
 21
225.8013267660297
 31
0.0000000000000284
  0
LINE
  5
8D
  8
DEFAULT
 10
98.42424590344814
 20
225.8013267660297
 30
0.0000000000000284
 11
98.3595040598012
 21
225.825313622277
 31
0.0000000000000284
  0
LINE
  5
8E
  8
DEFAULT
 10
98.3595040598012
 20
225.825313622277
 30
0.0000000000000284
 11
98.29562872685722
 21
225.8515208242019
 31
0.0000000000000284
  0
LINE
  5
8F
  8
DEFAULT
 10
98.29562872685722
 20
225.8515208242019
 30
0.0000000000000284
 11
98.23269602605757
 21
225.8799171401866
 31
0.0000000000000284
  0
LINE
  5
90
  8
DEFAULT
 10
98.23269602605757
 20
225.8799171401866
 30
0.0000000000000284
 11
98.17078095549108
 21
225.9104687298045
 31
0.0000000000000284
  0
LINE
  5
91
  8
DEFAULT
 10
98.17078095549108
 20
225.9104687298045
 30
0.0000000000000284
 11
98.10995730051745
 21
225.9431391841491
 31
0.0000000000000284
  0
LINE
  5
92
  8
DEFAULT
 10
98.10995730051745
 20
225.9431391841491
 30
0.0000000000000284
 11
98.05029754583569
 21
225.9778895692225
 31
0.0000000000000284
  0
LINE
  5
93
  8
DEFAULT
 10
98.05029754583569
 20
225.9778895692225
 30
0.0000000000000284
 11
97.99187278910293
 21
226.0146784723341
 31
0.0000000000000284
  0
LINE
  5
94
  8
DEFAULT
 10
97.99187278910293
 20
226.0146784723341
 30
0.0000000000000284
 11
97.93475265620586
 21
226.0534620514528
 31
0.0000000000000284
  0
LINE
  5
95
  8
DEFAULT
 10
97.93475265620586
 20
226.0534620514528
 30
0.0000000000000284
 11
97.87900521828631
 21
226.0941940874545
 31
0.0000000000000284
  0
LINE
  5
96
  8
DEFAULT
 10
97.87900521828631
 20
226.0941940874545
 30
0.0000000000000284
 11
97.82469691061955
 21
226.1368260392021
 31
0.0000000000000284
  0
LINE
  5
97
  8
DEFAULT
 10
97.82469691061955
 20
226.1368260392021
 30
0.0000000000000284
 11
97.77189245344213
 21
226.181307101393
 31
0.0000000000000284
  0
LINE
  5
98
  8
DEFAULT
 10
97.77189245344213
 20
226.181307101393
 30
0.0000000000000284
 11
97.72065477482359
 21
226.2275842651049
 31
0.0000000000000284
  0
LINE
  5
99
  8
DEFAULT
 10
97.72065477482359
 20
226.2275842651049
 30
0.0000000000000284
 11
97.67104493567378
 21
226.2756023809672
 31
0.0000000000000284
  0
LINE
  5
9A
  8
DEFAULT
 10
97.67104493567378
 20
226.2756023809672
 30
0.0000000000000284
 11
97.62312205697556
 21
226.3253042248838
 31
0.0000000000000284
  0
LINE
  5
9B
  8
DEFAULT
 10
97.62312205697556
 20
226.3253042248838
 30
0.0000000000000284
 11
97.5769432493291
 21
226.3766305662281
 31
0.0000000000000284
  0
LINE
  5
9C
  8
DEFAULT
 10
97.5769432493291
 20
226.3766305662281
 30
0.0000000000000284
 11
97.53256354489217
 21
226.4295202384291
 31
0.0000000000000284
  0
LINE
  5
9D
  8
DEFAULT
 10
97.53256354489217
 20
226.4295202384291
 30
0.0000000000000284
 11
97.49003583179723
 21
226.4839102118649
 31
0.0000000000000284
  0
LINE
  5
9E
  8
DEFAULT
 10
97.49003583179723
 20
226.4839102118649
 30
0.0000000000000284
 11
97.44941079112363
 21
226.5397356689764
 31
0.0000000000000284
  0
LINE
  5
9F
  8
DEFAULT
 10
97.44941079112363
 20
226.5397356689764
 30
0.0000000000000284
 11
97.41073683650009
 21
226.5969300815113
 31
0.0000000000000284
  0
LINE
  5
A0
  8
DEFAULT
 10
97.41073683650009
 20
226.5969300815113
 30
0.0000000000000284
 11
97.3740600564092
 21
226.6554252898073
 31
0.0000000000000284
  0
LINE
  5
A1
  8
DEFAULT
 10
97.3740600564092
 20
226.6554252898073
 30
0.0000000000000284
 11
97.33942415926288
 21
226.7151515840194
 31
0.0000000000000284
  0
LINE
  5
A2
  8
DEFAULT
 10
97.33942415926288
 20
226.7151515840194
 30
0.0000000000000284
 11
97.30687042131433
 21
226.776037787194
 31
0.0000000000000284
  0
LINE
  5
A3
  8
DEFAULT
 10
97.30687042131433
 20
226.776037787194
 30
0.0000000000000284
 11
97.27643763746822
 21
226.8380113400921
 31
0.0000000000000284
  0
LINE
  5
A4
  8
DEFAULT
 10
97.27643763746822
 20
226.8380113400921
 30
0.0000000000000284
 11
97.24816207504821
 21
226.9009983876595
 31
0.0000000000000284
  0
LINE
  5
A5
  8
DEFAULT
 10
97.24816207504821
 20
226.9009983876595
 30
0.0000000000000284
 11
97.22207743057639
 21
226.9649238670415
 31
0.0000000000000284
  0
LINE
  5
A6
  8
DEFAULT
 10
97.22207743057639
 20
226.9649238670415
 30
0.0000000000000284
 11
97.19821478961647
 21
227.0297115970361
 31
0.0000000000000284
  0
LINE
  5
A7
  8
DEFAULT
 10
97.19821478961647
 20
227.0297115970361
 30
0.0000000000000284
 11
97.1766025897287
 21
227.0952843688812
 31
0.0000000000000284
  0
LINE
  5
A8
  8
DEFAULT
 10
97.1766025897287
 20
227.0952843688812
 30
0.0000000000000284
 11
97.15726658658006
 21
227.1615640382653
 31
0.0000000000000284
  0
LINE
  5
A9
  8
DEFAULT
 10
97.15726658658006
 20
227.1615640382653
 30
0.0000000000000284
 11
97.14022982325095
 21
227.228471618454
 31
0.0000000000000284
  0
LINE
  5
AA
  8
DEFAULT
 10
97.14022982325095
 20
227.228471618454
 30
0.0000000000000284
 11
97.12551260277415
 21
227.2959273744195
 31
0.0000000000000284
  0
LINE
  5
AB
  8
DEFAULT
 10
97.12551260277415
 20
227.2959273744195
 30
0.0000000000000284
 11
97.11313246393945
 21
227.3638509178626
 31
0.0000000000000284
  0
LINE
  5
AC
  8
DEFAULT
 10
97.11313246393945
 20
227.3638509178626
 30
0.0000000000000284
 11
97.10310416039225
 21
227.4321613030131
 31
0.0000000000000284
  0
LINE
  5
AD
  8
DEFAULT
 10
97.10310416039225
 20
227.4321613030131
 30
0.0000000000000284
 11
97.0954396430514
 21
227.5007771230939
 31
0.0000000000000284
  0
LINE
  5
AE
  8
DEFAULT
 10
97.0954396430514
 20
227.5007771230939
 30
0.0000000000000284
 11
97.09014804586707
 21
227.5696166073357
 31
0.0000000000000284
  0
LINE
  5
AF
  8
DEFAULT
 10
97.09014804586707
 20
227.5696166073357
 30
0.0000000000000284
 11
97.0872356749356
 21
227.6385977184241
 31
0.0000000000000284
  0
LINE
  5
B0
  8
DEFAULT
 10
97.0872356749356
 20
227.6385977184241
 30
0.0000000000000284
 11
97.08670600098449
 21
227.7076382502655
 31
0.0000000000000284
  0
LINE
  5
B1
  8
DEFAULT
 10
97.08670600098449
 20
227.7076382502655
 30
0.0000000000000284
 11
97.0885596552362
 21
227.7766559259533
 31
0.0000000000000284
  0
LINE
  5
B2
  8
DEFAULT
 10
97.0885596552362
 20
227.7766559259533
 30
0.0000000000000284
 11
97.09279442865589
 21
227.8455684958192
 31
0.0000000000000284
  0
LINE
  5
B3
  8
DEFAULT
 10
97.09279442865589
 20
227.8455684958192
 30
0.0000000000000284
 11
97.0994052745841
 21
227.9142938354514
 31
0.0000000000000284
  0
LINE
  5
B4
  8
DEFAULT
 10
97.0994052745841
 20
227.9142938354514
 30
0.0000000000000284
 11
97.10838431475077
 21
227.9827500435637
 31
0.0000000000000284
  0
LINE
  5
B5
  8
DEFAULT
 10
97.10838431475077
 20
227.9827500435637
 30
0.0000000000000284
 11
97.11972084866406
 21
228.0508555395994
 31
0.0000000000000284
  0
LINE
  5
B6
  8
DEFAULT
 10
97.11972084866406
 20
228.0508555395994
 30
0.0000000000000284
 11
97.13340136636226
 21
228.1185291609518
 31
0.0000000000000284
  0
LINE
  5
B7
  8
DEFAULT
 10
97.13340136636226
 20
228.1185291609518
 30
0.0000000000000284
 11
97.14940956451392
 21
228.1856902596874
 31
0.0000000000000284
  0
LINE
  5
B8
  8
DEFAULT
 10
97.14940956451392
 20
228.1856902596874
 30
0.0000000000000284
 11
97.16772636584676
 21
228.2522587986556
 31
0.0000000000000284
  0
LINE
  5
B9
  8
DEFAULT
 10
97.16772636584676
 20
228.2522587986556
 30
0.0000000000000284
 11
97.18832994188249
 21
228.3181554468707
 31
0.0000000000000284
  0
LINE
  5
BA
  8
DEFAULT
 10
97.18832994188249
 20
228.3181554468707
 30
0.0000000000000284
 11
97.21119573895018
 21
228.3833016740515
 31
0.0000000000000284
  0
LINE
  5
BB
  8
DEFAULT
 10
97.21119573895018
 20
228.3833016740515
 30
0.0000000000000284
 11
97.23629650744736
 21
228.447619844208
 31
0.0000000000000284
  0
LINE
  5
BC
  8
DEFAULT
 10
97.23629650744736
 20
228.447619844208
 30
0.0000000000000284
 11
97.26360233431386
 21
228.5110333081615
 31
0.0000000000000284
  0
LINE
  5
BD
  8
DEFAULT
 10
97.26360233431386
 20
228.5110333081615
 30
0.0000000000000284
 11
97.29308067867977
 21
228.5734664948884
 31
0.0000000000000284
  0
LINE
  5
BE
  8
DEFAULT
 10
97.29308067867977
 20
228.5734664948884
 30
0.0000000000000284
 11
97.32469641064505
 21
228.6348450015804
 31
0.0000000000000284
  0
LINE
  5
BF
  8
DEFAULT
 10
97.32469641064505
 20
228.6348450015804
 30
0.0000000000000284
 11
97.35841185314443
 21
228.695095682311
 31
0.0000000000000284
  0
LINE
  5
C0
  8
DEFAULT
 10
97.35841185314443
 20
228.695095682311
 30
0.0000000000000284
 11
97.39418682684796
 21
228.7541467352055
 31
0.0000000000000284
  0
LINE
  5
C1
  8
DEFAULT
 10
97.39418682684796
 20
228.7541467352055
 30
0.0000000000000284
 11
97.43197869804337
 21
228.8119277880082
 31
0.0000000000000284
  0
LINE
  5
C2
  8
DEFAULT
 10
97.43197869804337
 20
228.8119277880082
 30
0.0000000000000284
 11
97.47174242944358
 21
228.8683699819465
 31
0.0000000000000284
  0
LINE
  5
C3
  8
DEFAULT
 10
97.47174242944358
 20
228.8683699819465
 30
0.0000000000000284
 11
97.51343063385845
 21
228.9234060537912
 31
0.0000000000000284
  0
LINE
  5
C4
  8
DEFAULT
 10
97.51343063385845
 20
228.9234060537912
 30
0.0000000000000284
 11
97.55699363066695
 21
228.9769704160156
 31
0.0000000000000284
  0
LINE
  5
C5
  8
DEFAULT
 10
97.55699363066695
 20
228.9769704160156
 30
0.0000000000000284
 11
97.60237950502254
 21
229.0289992349568
 31
0.0000000000000284
  0
LINE
  5
C6
  8
DEFAULT
 10
97.60237950502254
 20
229.0289992349568
 30
0.0000000000000284
 11
97.64953416972105
 21
229.079430506888
 31
0.0000000000000284
  0
LINE
  5
C7
  8
DEFAULT
 10
97.64953416972105
 20
229.079430506888
 30
0.0000000000000284
 11
97.69840142965744
 21
229.1282041319096
 31
0.0000000000000284
  0
LINE
  5
C8
  8
DEFAULT
 10
97.69840142965744
 20
229.1282041319096
 30
0.0000000000000284
 11
97.74892304879454
 21
229.1752619855709
 31
0.0000000000000284
  0
LINE
  5
C9
  8
DEFAULT
 10
97.74892304879454
 20
229.1752619855709
 30
0.0000000000000284
 11
97.8010388195641
 21
229.2205479881382
 31
0.0000000000000284
  0
LINE
  5
CA
  8
DEFAULT
 10
97.8010388195641
 20
229.2205479881382
 30
0.0000000000000284
 11
100.86521659204
 21
231.7916984268845
 31
0.0000000000000284
  0
LINE
  5
CB
  8
DEFAULT
 10
100.86521659204
 20
231.7916984268845
 30
0.0000000000000284
 11
100.9188644070932
 21
231.8351586101729
 31
0.0000000000000284
  0
LINE
  5
CC
  8
DEFAULT
 10
100.9188644070932
 20
231.8351586101729
 30
0.0000000000000284
 11
100.9739803333148
 21
231.8767411818607
 31
0.0000000000000284
  0
LINE
  5
CD
  8
DEFAULT
 10
100.9739803333148
 20
231.8767411818607
 30
0.0000000000000284
 11
101.0304986880141
 21
231.9163965872113
 31
0.0000000000000284
  0
LINE
  5
CE
  8
DEFAULT
 10
101.0304986880141
 20
231.9163965872113
 30
0.0000000000000284
 11
101.0883521171996
 21
231.9540775681288
 31
0.0000000000000284
  0
LINE
  5
CF
  8
DEFAULT
 10
101.0883521171996
 20
231.9540775681288
 30
0.0000000000000284
 11
101.1474716758467
 21
231.9897392194761
 31
0.0000000000000284
  0
LINE
  5
D0
  8
DEFAULT
 10
101.1474716758467
 20
231.9897392194761
 30
0.0000000000000284
 11
101.2077869100598
 21
232.0233390425894
 31
0.0000000000000284
  0
LINE
  5
D1
  8
DEFAULT
 10
101.2077869100598
 20
232.0233390425894
 30
0.0000000000000284
 11
101.2692259410347
 21
232.0548369959246
 31
0.0000000000000284
  0
LINE
  5
D2
  8
DEFAULT
 10
101.2692259410347
 20
232.0548369959246
 30
0.0000000000000284
 11
101.3317155507171
 21
232.0841955427753
 31
0.0000000000000284
  0
LINE
  5
D3
  8
DEFAULT
 10
101.3317155507171
 20
232.0841955427753
 30
0.0000000000000284
 11
101.395181269058
 21
232.1113796960065
 31
0.0000000000000284
  0
LINE
  5
D4
  8
DEFAULT
 10
101.395181269058
 20
232.1113796960065
 30
0.0000000000000284
 11
101.4595474627618
 21
232.1363570597491
 31
0.0000000000000284
  0
LINE
  5
D5
  8
DEFAULT
 10
101.4595474627618
 20
232.1363570597491
 30
0.0000000000000284
 11
101.5247374254188
 21
232.1590978680067
 31
0.0000000000000284
  0
LINE
  5
D6
  8
DEFAULT
 10
101.5247374254188
 20
232.1590978680067
 30
0.0000000000000284
 11
101.5906734689188
 21
232.1795750201282
 31
0.0000000000000284
  0
LINE
  5
D7
  8
DEFAULT
 10
101.5906734689188
 20
232.1795750201282
 30
0.0000000000000284
 11
101.6572770160325
 21
232.1977641131047
 31
0.0000000000000284
  0
LINE
  5
D8
  8
DEFAULT
 10
101.6572770160325
 20
232.1977641131047
 30
0.0000000000000284
 11
101.7244686940543
 21
232.2136434706502
 31
0.0000000000000284
  0
LINE
  5
D9
  8
DEFAULT
 10
101.7244686940543
 20
232.2136434706502
 30
0.0000000000000284
 11
101.7921684293916
 21
232.2271941690342
 31
0.0000000000000284
  0
LINE
  5
DA
  8
DEFAULT
 10
101.7921684293916
 20
232.2271941690342
 30
0.0000000000000284
 11
101.8602955429905
 21
232.2384000596334
 31
0.0000000000000284
  0
LINE
  5
DB
  8
DEFAULT
 10
101.8602955429905
 20
232.2384000596334
 30
0.0000000000000284
 11
101.9287688464822
 21
232.2472477881763
 31
0.0000000000000284
  0
LINE
  5
DC
  8
DEFAULT
 10
101.9287688464822
 20
232.2472477881763
 30
0.0000000000000284
 11
101.9975067389369
 21
232.2537268106575
 31
0.0000000000000284
  0
LINE
  5
DD
  8
DEFAULT
 10
101.9975067389369
 20
232.2537268106575
 30
0.0000000000000284
 11
102.0664273041094
 21
232.2578294059035
 31
0.0000000000000284
  0
LINE
  5
DE
  8
DEFAULT
 10
102.0664273041094
 20
232.2578294059035
 30
0.0000000000000284
 11
102.1354484080594
 21
232.2595506847739
 31
0.0000000000000284
  0
LINE
  5
DF
  8
DEFAULT
 10
102.1354484080594
 20
232.2595506847739
 30
0.0000000000000284
 11
102.2044877970332
 21
232.2588885959883
 31
0.0000000000000284
  0
LINE
  5
E0
  8
DEFAULT
 10
102.2044877970332
 20
232.2588885959883
 30
0.0000000000000284
 11
102.2734631954862
 21
232.2558439285704
 31
0.0000000000000284
  0
LINE
  5
E1
  8
DEFAULT
 10
102.2734631954862
 20
232.2558439285704
 30
0.0000000000000284
 11
102.3422924041326
 21
232.2504203109078
 31
0.0000000000000284
  0
LINE
  5
E2
  8
DEFAULT
 10
102.3422924041326
 20
232.2504203109078
 30
0.0000000000000284
 11
102.4108933979037
 21
232.2426242064282
 31
0.0000000000000284
  0
LINE
  5
E3
  8
DEFAULT
 10
102.4108933979037
 20
232.2426242064282
 30
0.0000000000000284
 11
102.4791844236988
 21
232.2324649058967
 31
0.0000000000000284
  0
LINE
  5
E4
  8
DEFAULT
 10
102.4791844236988
 20
232.2324649058967
 30
0.0000000000000284
 11
102.5470840978119
 21
232.2199545163436
 31
0.0000000000000284
  0
LINE
  5
E5
  8
DEFAULT
 10
102.5470840978119
 20
232.2199545163436
 30
0.0000000000000284
 11
102.6145115029182
 21
232.2051079466368
 31
0.0000000000000284
  0
LINE
  5
E6
  8
DEFAULT
 10
102.6145115029182
 20
232.2051079466368
 30
0.0000000000000284
 11
102.6813862845049
 21
232.1879428897137
 31
0.0000000000000284
  0
LINE
  5
E7
  8
DEFAULT
 10
102.6813862845049
 20
232.1879428897137
 30
0.0000000000000284
 11
102.7476287466309
 21
232.1684798014971
 31
0.0000000000000284
  0
LINE
  5
E8
  8
DEFAULT
 10
102.7476287466309
 20
232.1684798014971
 30
0.0000000000000284
 11
102.8131599469022
 21
232.1467418765172
 31
0.0000000000000284
  0
LINE
  5
E9
  8
DEFAULT
 10
102.8131599469022
 20
232.1467418765172
 30
0.0000000000000284
 11
102.8779017905492
 21
232.1227550202699
 31
0.0000000000000284
  0
LINE
  5
EA
  8
DEFAULT
 10
102.8779017905492
 20
232.1227550202699
 30
0.0000000000000284
 11
102.9417771234932
 21
232.096547818345
 31
0.0000000000000284
  0
LINE
  5
EB
  8
DEFAULT
 10
102.9417771234932
 20
232.096547818345
 30
0.0000000000000284
 11
103.0047098242928
 21
232.0681515023604
 31
0.0000000000000284
  0
LINE
  5
EC
  8
DEFAULT
 10
103.0047098242928
 20
232.0681515023604
 30
0.0000000000000284
 11
103.0666248948593
 21
232.0375999127424
 31
0.0000000000000284
  0
LINE
  5
ED
  8
DEFAULT
 10
103.0666248948593
 20
232.0375999127424
 30
0.0000000000000284
 11
103.1274485498329
 21
232.0049294583978
 31
0.0000000000000284
  0
LINE
  5
EE
  8
DEFAULT
 10
103.1274485498329
 20
232.0049294583978
 30
0.0000000000000284
 11
103.1871083045147
 21
231.9701790733244
 31
0.0000000000000284
  0
LINE
  5
EF
  8
DEFAULT
 10
103.1871083045147
 20
231.9701790733244
 30
0.0000000000000284
 11
103.2455330612474
 21
231.9333901702128
 31
0.0000000000000284
  0
LINE
  5
F0
  8
DEFAULT
 10
103.2455330612474
 20
231.9333901702128
 30
0.0000000000000284
 11
103.3026531941445
 21
231.8946065910941
 31
0.0000000000000284
  0
LINE
  5
F1
  8
DEFAULT
 10
103.3026531941445
 20
231.8946065910941
 30
0.0000000000000284
 11
103.3584006320641
 21
231.8538745550924
 31
0.0000000000000284
  0
LINE
  5
F2
  8
DEFAULT
 10
103.3584006320641
 20
231.8538745550924
 30
0.0000000000000284
 11
103.4127089397308
 21
231.8112426033448
 31
0.0000000000000284
  0
LINE
  5
F3
  8
DEFAULT
 10
103.4127089397308
 20
231.8112426033448
 30
0.0000000000000284
 11
103.4655133969082
 21
231.7667615411539
 31
0.0000000000000284
  0
LINE
  5
F4
  8
DEFAULT
 10
103.4655133969082
 20
231.7667615411539
 30
0.0000000000000284
 11
103.5167510755268
 21
231.720484377442
 31
0.0000000000000284
  0
LINE
  5
F5
  8
DEFAULT
 10
103.5167510755268
 20
231.720484377442
 30
0.0000000000000284
 11
103.5663609146766
 21
231.6724662615797
 31
0.0000000000000284
  0
LINE
  5
F6
  8
DEFAULT
 10
103.5663609146766
 20
231.6724662615797
 30
0.0000000000000284
 11
103.6142837933748
 21
231.622764417663
 31
0.0000000000000284
  0
LINE
  5
F7
  8
DEFAULT
 10
103.6142837933748
 20
231.622764417663
 30
0.0000000000000284
 11
103.6604626010213
 21
231.5714380763188
 31
0.0000000000000284
  0
LINE
  5
F8
  8
DEFAULT
 10
103.6604626010213
 20
231.5714380763188
 30
0.0000000000000284
 11
103.7048423054582
 21
231.5185484041178
 31
0.0000000000000284
  0
LINE
  5
F9
  8
DEFAULT
 10
103.7048423054582
 20
231.5185484041178
 30
0.0000000000000284
 11
103.7473700185532
 21
231.464158430682
 31
0.0000000000000284
  0
LINE
  5
FA
  8
DEFAULT
 10
103.7473700185532
 20
231.464158430682
 30
0.0000000000000284
 11
103.7879950592267
 21
231.4083329735705
 31
0.0000000000000284
  0
LINE
  5
FB
  8
DEFAULT
 10
103.7879950592267
 20
231.4083329735705
 30
0.0000000000000284
 11
103.8266690138503
 21
231.3511385610356
 31
0.0000000000000284
  0
LINE
  5
FC
  8
DEFAULT
 10
103.8266690138503
 20
231.3511385610356
 30
0.0000000000000284
 11
103.8633457939412
 21
231.2926433527395
 31
0.0000000000000284
  0
LINE
  5
FD
  8
DEFAULT
 10
103.8633457939412
 20
231.2926433527395
 30
0.0000000000000284
 11
103.8979816910875
 21
231.2329170585275
 31
0.0000000000000284
  0
LINE
  5
FE
  8
DEFAULT
 10
103.8979816910875
 20
231.2329170585275
 30
0.0000000000000284
 11
103.9305354290361
 21
231.1720308553529
 31
0.0000000000000284
  0
LINE
  5
FF
  8
DEFAULT
 10
103.9305354290361
 20
231.1720308553529
 30
0.0000000000000284
 11
103.9609682128821
 21
231.1100573024548
 31
0.0000000000000284
  0
LINE
  5
100
  8
DEFAULT
 10
103.9609682128821
 20
231.1100573024548
 30
0.0000000000000284
 11
103.9892437753021
 21
231.0470702548873
 31
0.0000000000000284
  0
LINE
  5
101
  8
DEFAULT
 10
103.9892437753021
 20
231.0470702548873
 30
0.0000000000000284
 11
104.015328419774
 21
230.9831447755054
 31
0.0000000000000284
  0
LINE
  5
102
  8
DEFAULT
 10
104.015328419774
 20
230.9831447755054
 30
0.0000000000000284
 11
104.0391910607339
 21
230.9183570455108
 31
0.0000000000000284
  0
LINE
  5
103
  8
DEFAULT
 10
104.0391910607339
 20
230.9183570455108
 30
0.0000000000000284
 11
104.0608032606217
 21
230.8527842736657
 31
0.0000000000000284
  0
LINE
  5
104
  8
DEFAULT
 10
104.0608032606217
 20
230.8527842736657
 30
0.0000000000000284
 11
104.0801392637703
 21
230.7865046042815
 31
0.0000000000000284
  0
LINE
  5
105
  8
DEFAULT
 10
104.0801392637703
 20
230.7865046042815
 30
0.0000000000000284
 11
104.0971760270994
 21
230.7195970240928
 31
0.0000000000000284
  0
LINE
  5
106
  8
DEFAULT
 10
104.0971760270994
 20
230.7195970240928
 30
0.0000000000000284
 11
104.1118932475762
 21
230.6521412681274
 31
0.0000000000000284
  0
LINE
  5
107
  8
DEFAULT
 10
104.1118932475762
 20
230.6521412681274
 30
0.0000000000000284
 11
104.1242733864109
 21
230.5842177246842
 31
0.0000000000000284
  0
LINE
  5
108
  8
DEFAULT
 10
104.1242733864109
 20
230.5842177246842
 30
0.0000000000000284
 11
104.1343016899581
 21
230.5159073395338
 31
0.0000000000000284
  0
LINE
  5
109
  8
DEFAULT
 10
104.1343016899581
 20
230.5159073395338
 30
0.0000000000000284
 11
104.1419662072989
 21
230.447291519453
 31
0.0000000000000284
  0
LINE
  5
10A
  8
DEFAULT
 10
104.1419662072989
 20
230.447291519453
 30
0.0000000000000284
 11
104.1472578044833
 21
230.3784520352112
 31
0.0000000000000284
  0
LINE
  5
10B
  8
DEFAULT
 10
104.1472578044833
 20
230.3784520352112
 30
0.0000000000000284
 11
104.1501701754147
 21
230.3094709241227
 31
0.0000000000000284
  0
LINE
  5
10C
  8
DEFAULT
 10
104.1501701754147
 20
230.3094709241227
 30
0.0000000000000284
 11
104.1506998493659
 21
230.2404303922814
 31
0.0000000000000284
  0
LINE
  5
10D
  8
DEFAULT
 10
104.1506998493659
 20
230.2404303922814
 30
0.0000000000000284
 11
104.1488461951141
 21
230.1714127165935
 31
0.0000000000000284
  0
LINE
  5
10E
  8
DEFAULT
 10
104.1488461951141
 20
230.1714127165935
 30
0.0000000000000284
 11
104.1446114216944
 21
230.1025001467276
 31
0.0000000000000284
  0
LINE
  5
10F
  8
DEFAULT
 10
104.1446114216944
 20
230.1025001467276
 30
0.0000000000000284
 11
104.1380005757663
 21
230.0337748070955
 31
0.0000000000000284
  0
LINE
  5
110
  8
DEFAULT
 10
104.1380005757663
 20
230.0337748070955
 30
0.0000000000000284
 11
104.1290215355996
 21
229.9653185989831
 31
0.0000000000000284
  0
LINE
  5
111
  8
DEFAULT
 10
104.1290215355996
 20
229.9653185989831
 30
0.0000000000000284
 11
104.1176850016863
 21
229.8972131029475
 31
0.0000000000000284
  0
LINE
  5
112
  8
DEFAULT
 10
104.1176850016863
 20
229.8972131029475
 30
0.0000000000000284
 11
104.1040044839881
 21
229.8295394815951
 31
0.0000000000000284
  0
LINE
  5
113
  8
DEFAULT
 10
104.1040044839881
 20
229.8295394815951
 30
0.0000000000000284
 11
104.0879962858364
 21
229.7623783828595
 31
0.0000000000000284
  0
LINE
  5
114
  8
DEFAULT
 10
104.0879962858364
 20
229.7623783828595
 30
0.0000000000000284
 11
104.0696794845036
 21
229.6958098438912
 31
0.0000000000000284
  0
LINE
  5
115
  8
DEFAULT
 10
104.0696794845036
 20
229.6958098438912
 30
0.0000000000000284
 11
104.0490759084678
 21
229.6299131956762
 31
0.0000000000000284
  0
LINE
  5
116
  8
DEFAULT
 10
104.0490759084678
 20
229.6299131956762
 30
0.0000000000000284
 11
104.0262101114001
 21
229.5647669684953
 31
0.0000000000000284
  0
LINE
  5
117
  8
DEFAULT
 10
104.0262101114001
 20
229.5647669684953
 30
0.0000000000000284
 11
104.001109342903
 21
229.5004487983388
 31
0.0000000000000284
  0
LINE
  5
118
  8
DEFAULT
 10
104.001109342903
 20
229.5004487983388
 30
0.0000000000000284
 11
103.9738035160365
 21
229.4370353343854
 31
0.0000000000000284
  0
LINE
  5
119
  8
DEFAULT
 10
103.9738035160365
 20
229.4370353343854
 30
0.0000000000000284
 11
103.9443251716705
 21
229.3746021476584
 31
0.0000000000000284
  0
LINE
  5
11A
  8
DEFAULT
 10
103.9443251716705
 20
229.3746021476584
 30
0.0000000000000284
 11
103.9127094397053
 21
229.3132236409665
 31
0.0000000000000284
  0
LINE
  5
11B
  8
DEFAULT
 10
103.9127094397053
 20
229.3132236409665
 30
0.0000000000000284
 11
103.8789939972059
 21
229.2529729602358
 31
0.0000000000000284
  0
LINE
  5
11C
  8
DEFAULT
 10
103.8789939972059
 20
229.2529729602358
 30
0.0000000000000284
 11
103.8432190235024
 21
229.1939219073413
 31
0.0000000000000284
  0
LINE
  5
11D
  8
DEFAULT
 10
103.8432190235024
 20
229.1939219073413
 30
0.0000000000000284
 11
103.8054271523069
 21
229.1361408545386
 31
0.0000000000000284
  0
LINE
  5
11E
  8
DEFAULT
 10
103.8054271523069
 20
229.1361408545386
 30
0.0000000000000284
 11
103.7656634209067
 21
229.0796986606003
 31
0.0000000000000284
  0
LINE
  5
11F
  8
DEFAULT
 10
103.7656634209067
 20
229.0796986606003
 30
0.0000000000000284
 11
103.7239752164919
 21
229.0246625887556
 31
0.0000000000000284
  0
LINE
  5
120
  8
DEFAULT
 10
103.7239752164919
 20
229.0246625887556
 30
0.0000000000000284
 11
103.6804122196833
 21
228.9710982265313
 31
0.0000000000000284
  0
LINE
  5
121
  8
DEFAULT
 10
103.6804122196833
 20
228.9710982265313
 30
0.0000000000000284
 11
103.6350263453278
 21
228.9190694075901
 31
0.0000000000000284
  0
LINE
  5
122
  8
DEFAULT
 10
103.6350263453278
 20
228.9190694075901
 30
0.0000000000000284
 11
103.5878716806292
 21
228.8686381356588
 31
0.0000000000000284
  0
LINE
  5
123
  8
DEFAULT
 10
103.5878716806292
 20
228.8686381356588
 30
0.0000000000000284
 11
103.5390044206929
 21
228.8198645106372
 31
0.0000000000000284
  0
LINE
  5
124
  8
DEFAULT
 10
103.5390044206929
 20
228.8198645106372
 30
0.0000000000000284
 11
103.4884828015557
 21
228.772806656976
 31
0.0000000000000284
  0
LINE
  5
125
  8
DEFAULT
 10
103.4884828015557
 20
228.772806656976
 30
0.0000000000000284
 11
103.4363670307862
 21
228.7275206544086
 31
0.0000000000000284
  0
LINE
  5
126
  8
DEFAULT
 10
172.1989611883653
 20
146.7794520310182
 30
0.0000000000000284
 11
169.1347834158894
 21
144.2083015922721
 31
0.0000000000000284
  0
LINE
  5
127
  8
DEFAULT
 10
169.1347834158894
 20
144.2083015922721
 30
0.0000000000000284
 11
169.0811356008363
 21
144.1648414089836
 31
0.0000000000000284
  0
LINE
  5
128
  8
DEFAULT
 10
169.0811356008363
 20
144.1648414089836
 30
0.0000000000000284
 11
169.0260196746147
 21
144.1232588372959
 31
0.0000000000000284
  0
LINE
  5
129
  8
DEFAULT
 10
169.0260196746147
 20
144.1232588372959
 30
0.0000000000000284
 11
168.9695013199154
 21
144.0836034319452
 31
0.0000000000000284
  0
LINE
  5
12A
  8
DEFAULT
 10
168.9695013199154
 20
144.0836034319452
 30
0.0000000000000284
 11
168.9116478907298
 21
144.0459224510278
 31
0.0000000000000284
  0
LINE
  5
12B
  8
DEFAULT
 10
168.9116478907298
 20
144.0459224510278
 30
0.0000000000000284
 11
168.8525283320828
 21
144.0102607996804
 31
0.0000000000000284
  0
LINE
  5
12C
  8
DEFAULT
 10
168.8525283320828
 20
144.0102607996804
 30
0.0000000000000284
 11
168.7922130978696
 21
143.9766609765671
 31
0.0000000000000284
  0
LINE
  5
12D
  8
DEFAULT
 10
168.7922130978696
 20
143.9766609765671
 30
0.0000000000000284
 11
168.7307740668948
 21
143.945163023232
 31
0.0000000000000284
  0
LINE
  5
12E
  8
DEFAULT
 10
168.7307740668948
 20
143.945163023232
 30
0.0000000000000284
 11
168.6682844572124
 21
143.9158044763812
 31
0.0000000000000284
  0
LINE
  5
12F
  8
DEFAULT
 10
168.6682844572124
 20
143.9158044763812
 30
0.0000000000000284
 11
168.6048187388714
 21
143.88862032315
 31
0.0000000000000284
  0
LINE
  5
130
  8
DEFAULT
 10
168.6048187388714
 20
143.88862032315
 30
0.0000000000000284
 11
168.5404525451677
 21
143.8636429594074
 31
0.0000000000000284
  0
LINE
  5
131
  8
DEFAULT
 10
168.5404525451677
 20
143.8636429594074
 30
0.0000000000000284
 11
168.4752625825106
 21
143.8409021511499
 31
0.0000000000000284
  0
LINE
  5
132
  8
DEFAULT
 10
168.4752625825106
 20
143.8409021511499
 30
0.0000000000000284
 11
168.4093265390107
 21
143.8204249990283
 31
0.0000000000000284
  0
LINE
  5
133
  8
DEFAULT
 10
168.4093265390107
 20
143.8204249990283
 30
0.0000000000000284
 11
168.3427229918969
 21
143.8022359060518
 31
0.0000000000000284
  0
LINE
  5
134
  8
DEFAULT
 10
168.3427229918969
 20
143.8022359060518
 30
0.0000000000000284
 11
168.2755313138752
 21
143.7863565485064
 31
0.0000000000000284
  0
LINE
  5
135
  8
DEFAULT
 10
168.2755313138752
 20
143.7863565485064
 30
0.0000000000000284
 11
168.2078315785379
 21
143.7728058501223
 31
0.0000000000000284
  0
LINE
  5
136
  8
DEFAULT
 10
168.2078315785379
 20
143.7728058501223
 30
0.0000000000000284
 11
168.139704464939
 21
143.7615999595231
 31
0.0000000000000284
  0
LINE
  5
137
  8
DEFAULT
 10
168.139704464939
 20
143.7615999595231
 30
0.0000000000000284
 11
168.0712311614473
 21
143.7527522309802
 31
0.0000000000000284
  0
LINE
  5
138
  8
DEFAULT
 10
168.0712311614473
 20
143.7527522309802
 30
0.0000000000000284
 11
168.0024932689925
 21
143.746273208499
 31
0.0000000000000284
  0
LINE
  5
139
  8
DEFAULT
 10
168.0024932689925
 20
143.746273208499
 30
0.0000000000000284
 11
167.9335727038201
 21
143.7421706132531
 31
0.0000000000000284
  0
LINE
  5
13A
  8
DEFAULT
 10
167.9335727038201
 20
143.7421706132531
 30
0.0000000000000284
 11
167.8645515998701
 21
143.7404493343826
 31
0.0000000000000284
  0
LINE
  5
13B
  8
DEFAULT
 10
167.8645515998701
 20
143.7404493343826
 30
0.0000000000000284
 11
167.7955122108962
 21
143.7411114231682
 31
0.0000000000000284
  0
LINE
  5
13C
  8
DEFAULT
 10
167.7955122108962
 20
143.7411114231682
 30
0.0000000000000284
 11
167.7265368124432
 21
143.7441560905862
 31
0.0000000000000284
  0
LINE
  5
13D
  8
DEFAULT
 10
167.7265368124432
 20
143.7441560905862
 30
0.0000000000000284
 11
167.6577076037968
 21
143.7495797082488
 31
0.0000000000000284
  0
LINE
  5
13E
  8
DEFAULT
 10
167.6577076037968
 20
143.7495797082488
 30
0.0000000000000284
 11
167.5891066100258
 21
143.7573758127284
 31
0.0000000000000284
  0
LINE
  5
13F
  8
DEFAULT
 10
167.5891066100258
 20
143.7573758127284
 30
0.0000000000000284
 11
167.5208155842307
 21
143.7675351132599
 31
0.0000000000000284
  0
LINE
  5
140
  8
DEFAULT
 10
167.5208155842307
 20
143.7675351132599
 30
0.0000000000000284
 11
167.4529159101176
 21
143.7800455028129
 31
0.0000000000000284
  0
LINE
  5
141
  8
DEFAULT
 10
167.4529159101176
 20
143.7800455028129
 30
0.0000000000000284
 11
167.3854885050112
 21
143.7948920725198
 31
0.0000000000000284
  0
LINE
  5
142
  8
DEFAULT
 10
167.3854885050112
 20
143.7948920725198
 30
0.0000000000000284
 11
167.3186137234245
 21
143.8120571294429
 31
0.0000000000000284
  0
LINE
  5
143
  8
DEFAULT
 10
167.3186137234245
 20
143.8120571294429
 30
0.0000000000000284
 11
167.2523712612986
 21
143.8315202176594
 31
0.0000000000000284
  0
LINE
  5
144
  8
DEFAULT
 10
167.2523712612986
 20
143.8315202176594
 30
0.0000000000000284
 11
167.1868400610272
 21
143.8532581426393
 31
0.0000000000000284
  0
LINE
  5
145
  8
DEFAULT
 10
167.1868400610272
 20
143.8532581426393
 30
0.0000000000000284
 11
167.1220982173803
 21
143.8772449988867
 31
0.0000000000000284
  0
LINE
  5
146
  8
DEFAULT
 10
167.1220982173803
 20
143.8772449988867
 30
0.0000000000000284
 11
167.0582228844363
 21
143.9034522008116
 31
0.0000000000000284
  0
LINE
  5
147
  8
DEFAULT
 10
167.0582228844363
 20
143.9034522008116
 30
0.0000000000000284
 11
166.9952901836366
 21
143.9318485167962
 31
0.0000000000000284
  0
LINE
  5
148
  8
DEFAULT
 10
166.9952901836366
 20
143.9318485167962
 30
0.0000000000000284
 11
166.9333751130702
 21
143.9624001064142
 31
0.0000000000000284
  0
LINE
  5
149
  8
DEFAULT
 10
166.9333751130702
 20
143.9624001064142
 30
0.0000000000000284
 11
166.8725514580965
 21
143.9950705607588
 31
0.0000000000000284
  0
LINE
  5
14A
  8
DEFAULT
 10
166.8725514580965
 20
143.9950705607588
 30
0.0000000000000284
 11
166.8128917034147
 21
144.0298209458321
 31
0.0000000000000284
  0
LINE
  5
14B
  8
DEFAULT
 10
166.8128917034147
 20
144.0298209458321
 30
0.0000000000000284
 11
166.754466946682
 21
144.0666098489438
 31
0.0000000000000284
  0
LINE
  5
14C
  8
DEFAULT
 10
166.754466946682
 20
144.0666098489438
 30
0.0000000000000284
 11
166.6973468137849
 21
144.1053934280625
 31
0.0000000000000284
  0
LINE
  5
14D
  8
DEFAULT
 10
166.6973468137849
 20
144.1053934280625
 30
0.0000000000000284
 11
166.6415993758654
 21
144.1461254640641
 31
0.0000000000000284
  0
LINE
  5
14E
  8
DEFAULT
 10
166.6415993758654
 20
144.1461254640641
 30
0.0000000000000284
 11
166.5872910681986
 21
144.1887574158117
 31
0.0000000000000284
  0
LINE
  5
14F
  8
DEFAULT
 10
166.5872910681986
 20
144.1887574158117
 30
0.0000000000000284
 11
166.5344866110212
 21
144.2332384780027
 31
0.0000000000000284
  0
LINE
  5
150
  8
DEFAULT
 10
166.5344866110212
 20
144.2332384780027
 30
0.0000000000000284
 11
166.4832489324027
 21
144.2795156417146
 31
0.0000000000000284
  0
LINE
  5
151
  8
DEFAULT
 10
166.4832489324027
 20
144.2795156417146
 30
0.0000000000000284
 11
166.4336390932529
 21
144.3275337575769
 31
0.0000000000000284
  0
LINE
  5
152
  8
DEFAULT
 10
166.4336390932529
 20
144.3275337575769
 30
0.0000000000000284
 11
166.3857162145546
 21
144.3772356014935
 31
0.0000000000000284
  0
LINE
  5
153
  8
DEFAULT
 10
166.3857162145546
 20
144.3772356014935
 30
0.0000000000000284
 11
166.3395374069082
 21
144.4285619428378
 31
0.0000000000000284
  0
LINE
  5
154
  8
DEFAULT
 10
166.3395374069082
 20
144.4285619428378
 30
0.0000000000000284
 11
166.2951577024712
 21
144.4814516150388
 31
0.0000000000000284
  0
LINE
  5
155
  8
DEFAULT
 10
166.2951577024712
 20
144.4814516150388
 30
0.0000000000000284
 11
166.2526299893763
 21
144.5358415884746
 31
0.0000000000000284
  0
LINE
  5
156
  8
DEFAULT
 10
166.2526299893763
 20
144.5358415884746
 30
0.0000000000000284
 11
166.2120049487027
 21
144.5916670455861
 31
0.0000000000000284
  0
LINE
  5
157
  8
DEFAULT
 10
166.2120049487027
 20
144.5916670455861
 30
0.0000000000000284
 11
166.1733309940792
 21
144.648861458121
 31
0.0000000000000284
  0
LINE
  5
158
  8
DEFAULT
 10
166.1733309940792
 20
144.648861458121
 30
0.0000000000000284
 11
166.1366542139883
 21
144.7073566664171
 31
0.0000000000000284
  0
LINE
  5
159
  8
DEFAULT
 10
166.1366542139883
 20
144.7073566664171
 30
0.0000000000000284
 11
166.102018316842
 21
144.7670829606291
 31
0.0000000000000284
  0
LINE
  5
15A
  8
DEFAULT
 10
166.102018316842
 20
144.7670829606291
 30
0.0000000000000284
 11
166.0694645788934
 21
144.8279691638037
 31
0.0000000000000284
  0
LINE
  5
15B
  8
DEFAULT
 10
166.0694645788934
 20
144.8279691638037
 30
0.0000000000000284
 11
166.0390317950473
 21
144.8899427167018
 31
0.0000000000000284
  0
LINE
  5
15C
  8
DEFAULT
 10
166.0390317950473
 20
144.8899427167018
 30
0.0000000000000284
 11
166.0107562326273
 21
144.9529297642692
 31
0.0000000000000284
  0
LINE
  5
15D
  8
DEFAULT
 10
166.0107562326273
 20
144.9529297642692
 30
0.0000000000000284
 11
165.9846715881555
 21
145.0168552436512
 31
0.0000000000000284
  0
LINE
  5
15E
  8
DEFAULT
 10
165.9846715881555
 20
145.0168552436512
 30
0.0000000000000284
 11
165.9608089471955
 21
145.0816429736459
 31
0.0000000000000284
  0
LINE
  5
15F
  8
DEFAULT
 10
165.9608089471955
 20
145.0816429736459
 30
0.0000000000000284
 11
165.9391967473078
 21
145.1472157454909
 31
0.0000000000000284
  0
LINE
  5
160
  8
DEFAULT
 10
165.9391967473078
 20
145.1472157454909
 30
0.0000000000000284
 11
165.9198607441591
 21
145.2134954148751
 31
0.0000000000000284
  0
LINE
  5
161
  8
DEFAULT
 10
165.9198607441591
 20
145.2134954148751
 30
0.0000000000000284
 11
165.90282398083
 21
145.2804029950638
 31
0.0000000000000284
  0
LINE
  5
162
  8
DEFAULT
 10
165.90282398083
 20
145.2804029950638
 30
0.0000000000000284
 11
165.8881067603532
 21
145.3478587510292
 31
0.0000000000000284
  0
LINE
  5
163
  8
DEFAULT
 10
165.8881067603532
 20
145.3478587510292
 30
0.0000000000000284
 11
165.8757266215185
 21
145.4157822944724
 31
0.0000000000000284
  0
LINE
  5
164
  8
DEFAULT
 10
165.8757266215185
 20
145.4157822944724
 30
0.0000000000000284
 11
165.8656983179713
 21
145.4840926796228
 31
0.0000000000000284
  0
LINE
  5
165
  8
DEFAULT
 10
165.8656983179713
 20
145.4840926796228
 30
0.0000000000000284
 11
165.8580338006305
 21
145.5527084997036
 31
0.0000000000000284
  0
LINE
  5
166
  8
DEFAULT
 10
165.8580338006305
 20
145.5527084997036
 30
0.0000000000000284
 11
165.8527422034462
 21
145.6215479839454
 31
0.0000000000000284
  0
LINE
  5
167
  8
DEFAULT
 10
165.8527422034462
 20
145.6215479839454
 30
0.0000000000000284
 11
165.8498298325147
 21
145.6905290950339
 31
0.0000000000000284
  0
LINE
  5
168
  8
DEFAULT
 10
165.8498298325147
 20
145.6905290950339
 30
0.0000000000000284
 11
165.8493001585636
 21
145.7595696268753
 31
0.0000000000000284
  0
LINE
  5
169
  8
DEFAULT
 10
165.8493001585636
 20
145.7595696268753
 30
0.0000000000000284
 11
165.8511538128153
 21
145.8285873025631
 31
0.0000000000000284
  0
LINE
  5
16A
  8
DEFAULT
 10
165.8511538128153
 20
145.8285873025631
 30
0.0000000000000284
 11
165.855388586235
 21
145.897499872429
 31
0.0000000000000284
  0
LINE
  5
16B
  8
DEFAULT
 10
165.855388586235
 20
145.897499872429
 30
0.0000000000000284
 11
165.8619994321632
 21
145.9662252120611
 31
0.0000000000000284
  0
LINE
  5
16C
  8
DEFAULT
 10
165.8619994321632
 20
145.9662252120611
 30
0.0000000000000284
 11
165.8709784723299
 21
146.0346814201735
 31
0.0000000000000284
  0
LINE
  5
16D
  8
DEFAULT
 10
165.8709784723299
 20
146.0346814201735
 30
0.0000000000000284
 11
165.8823150062431
 21
146.1027869162091
 31
0.0000000000000284
  0
LINE
  5
16E
  8
DEFAULT
 10
165.8823150062431
 20
146.1027869162091
 30
0.0000000000000284
 11
165.8959955239414
 21
146.1704605375615
 31
0.0000000000000284
  0
LINE
  5
16F
  8
DEFAULT
 10
165.8959955239414
 20
146.1704605375615
 30
0.0000000000000284
 11
165.912003722093
 21
146.2376216362971
 31
0.0000000000000284
  0
LINE
  5
170
  8
DEFAULT
 10
165.912003722093
 20
146.2376216362971
 30
0.0000000000000284
 11
165.9303205234258
 21
146.3041901752654
 31
0.0000000000000284
  0
LINE
  5
171
  8
DEFAULT
 10
165.9303205234258
 20
146.3041901752654
 30
0.0000000000000284
 11
165.9509240994616
 21
146.3700868234804
 31
0.0000000000000284
  0
LINE
  5
172
  8
DEFAULT
 10
165.9509240994616
 20
146.3700868234804
 30
0.0000000000000284
 11
165.9737898965293
 21
146.4352330506613
 31
0.0000000000000284
  0
LINE
  5
173
  8
DEFAULT
 10
165.9737898965293
 20
146.4352330506613
 30
0.0000000000000284
 11
165.9988906650265
 21
146.4995512208178
 31
0.0000000000000284
  0
LINE
  5
174
  8
DEFAULT
 10
165.9988906650265
 20
146.4995512208178
 30
0.0000000000000284
 11
166.026196491893
 21
146.5629646847712
 31
0.0000000000000284
  0
LINE
  5
175
  8
DEFAULT
 10
166.026196491893
 20
146.5629646847712
 30
0.0000000000000284
 11
166.0556748362589
 21
146.6253978714982
 31
0.0000000000000284
  0
LINE
  5
176
  8
DEFAULT
 10
166.0556748362589
 20
146.6253978714982
 30
0.0000000000000284
 11
166.0872905682242
 21
146.6867763781902
 31
0.0000000000000284
  0
LINE
  5
177
  8
DEFAULT
 10
166.0872905682242
 20
146.6867763781902
 30
0.0000000000000284
 11
166.1210060107235
 21
146.7470270589208
 31
0.0000000000000284
  0
LINE
  5
178
  8
DEFAULT
 10
166.1210060107235
 20
146.7470270589208
 30
0.0000000000000284
 11
166.1567809844271
 21
146.8060781118153
 31
0.0000000000000284
  0
LINE
  5
179
  8
DEFAULT
 10
166.1567809844271
 20
146.8060781118153
 30
0.0000000000000284
 11
166.1945728556225
 21
146.863859164618
 31
0.0000000000000284
  0
LINE
  5
17A
  8
DEFAULT
 10
166.1945728556225
 20
146.863859164618
 30
0.0000000000000284
 11
166.2343365870227
 21
146.9203013585563
 31
0.0000000000000284
  0
LINE
  5
17B
  8
DEFAULT
 10
166.2343365870227
 20
146.9203013585563
 30
0.0000000000000284
 11
166.2760247914376
 21
146.975337430401
 31
0.0000000000000284
  0
LINE
  5
17C
  8
DEFAULT
 10
166.2760247914376
 20
146.975337430401
 30
0.0000000000000284
 11
166.3195877882461
 21
147.0289017926254
 31
0.0000000000000284
  0
LINE
  5
17D
  8
DEFAULT
 10
166.3195877882461
 20
147.0289017926254
 30
0.0000000000000284
 11
166.3649736626017
 21
147.0809306115665
 31
0.0000000000000284
  0
LINE
  5
17E
  8
DEFAULT
 10
166.3649736626017
 20
147.0809306115665
 30
0.0000000000000284
 11
166.4121283273002
 21
147.1313618834978
 31
0.0000000000000284
  0
LINE
  5
17F
  8
DEFAULT
 10
166.4121283273002
 20
147.1313618834978
 30
0.0000000000000284
 11
166.4609955872366
 21
147.1801355085194
 31
0.0000000000000284
  0
LINE
  5
180
  8
DEFAULT
 10
166.4609955872366
 20
147.1801355085194
 30
0.0000000000000284
 11
166.5115172063737
 21
147.2271933621807
 31
0.0000000000000284
  0
LINE
  5
181
  8
DEFAULT
 10
166.5115172063737
 20
147.2271933621807
 30
0.0000000000000284
 11
166.5636329771432
 21
147.272479364748
 31
0.0000000000000284
  0
LINE
  5
182
  8
DEFAULT
 10
166.5636329771432
 20
147.272479364748
 30
0.0000000000000284
 11
169.6278107496192
 21
149.8436298034941
 31
0.0000000000000284
  0
LINE
  5
183
  8
DEFAULT
 10
169.6278107496192
 20
149.8436298034941
 30
0.0000000000000284
 11
169.6814585646723
 21
149.8870899867825
 31
0.0000000000000284
  0
LINE
  5
184
  8
DEFAULT
 10
169.6814585646723
 20
149.8870899867825
 30
0.0000000000000284
 11
169.7365744908939
 21
149.9286725584703
 31
0.0000000000000284
  0
LINE
  5
185
  8
DEFAULT
 10
169.7365744908939
 20
149.9286725584703
 30
0.0000000000000284
 11
169.7930928455932
 21
149.9683279638209
 31
0.0000000000000284
  0
LINE
  5
186
  8
DEFAULT
 10
169.7930928455932
 20
149.9683279638209
 30
0.0000000000000284
 11
169.8509462747788
 21
150.0060089447384
 31
0.0000000000000284
  0
LINE
  5
187
  8
DEFAULT
 10
169.8509462747788
 20
150.0060089447384
 30
0.0000000000000284
 11
169.9100658334258
 21
150.0416705960857
 31
0.0000000000000284
  0
LINE
  5
188
  8
DEFAULT
 10
169.9100658334258
 20
150.0416705960857
 30
0.0000000000000284
 11
169.970381067639
 21
150.0752704191991
 31
0.0000000000000284
  0
LINE
  5
189
  8
DEFAULT
 10
169.970381067639
 20
150.0752704191991
 30
0.0000000000000284
 11
170.0318200986139
 21
150.1067683725342
 31
0.0000000000000284
  0
LINE
  5
18A
  8
DEFAULT
 10
170.0318200986139
 20
150.1067683725342
 30
0.0000000000000284
 11
170.0943097082962
 21
150.1361269193849
 31
0.0000000000000284
  0
LINE
  5
18B
  8
DEFAULT
 10
170.0943097082962
 20
150.1361269193849
 30
0.0000000000000284
 11
170.1577754266372
 21
150.1633110726162
 31
0.0000000000000284
  0
LINE
  5
18C
  8
DEFAULT
 10
170.1577754266372
 20
150.1633110726162
 30
0.0000000000000284
 11
170.2221416203409
 21
150.1882884363587
 31
0.0000000000000284
  0
LINE
  5
18D
  8
DEFAULT
 10
170.2221416203409
 20
150.1882884363587
 30
0.0000000000000284
 11
170.287331582998
 21
150.2110292446163
 31
0.0000000000000284
  0
LINE
  5
18E
  8
DEFAULT
 10
170.287331582998
 20
150.2110292446163
 30
0.0000000000000284
 11
170.3532676264979
 21
150.2315063967379
 31
0.0000000000000284
  0
LINE
  5
18F
  8
DEFAULT
 10
170.3532676264979
 20
150.2315063967379
 30
0.0000000000000284
 11
170.4198711736117
 21
150.2496954897143
 31
0.0000000000000284
  0
LINE
  5
190
  8
DEFAULT
 10
170.4198711736117
 20
150.2496954897143
 30
0.0000000000000284
 11
170.4870628516334
 21
150.2655748472598
 31
0.0000000000000284
  0
LINE
  5
191
  8
DEFAULT
 10
170.4870628516334
 20
150.2655748472598
 30
0.0000000000000284
 11
170.5547625869707
 21
150.2791255456439
 31
0.0000000000000284
  0
LINE
  5
192
  8
DEFAULT
 10
170.5547625869707
 20
150.2791255456439
 30
0.0000000000000284
 11
170.6228897005696
 21
150.2903314362431
 31
0.0000000000000284
  0
LINE
  5
193
  8
DEFAULT
 10
170.6228897005696
 20
150.2903314362431
 30
0.0000000000000284
 11
170.6913630040613
 21
150.299179164786
 31
0.0000000000000284
  0
LINE
  5
194
  8
DEFAULT
 10
170.6913630040613
 20
150.299179164786
 30
0.0000000000000284
 11
170.7601008965161
 21
150.3056581872672
 31
0.0000000000000284
  0
LINE
  5
195
  8
DEFAULT
 10
170.7601008965161
 20
150.3056581872672
 30
0.0000000000000284
 11
170.8290214616885
 21
150.3097607825131
 31
0.0000000000000284
  0
LINE
  5
196
  8
DEFAULT
 10
170.8290214616885
 20
150.3097607825131
 30
0.0000000000000284
 11
170.8980425656385
 21
150.3114820613836
 31
0.0000000000000284
  0
LINE
  5
197
  8
DEFAULT
 10
170.8980425656385
 20
150.3114820613836
 30
0.0000000000000284
 11
170.9670819546124
 21
150.310819972598
 31
0.0000000000000284
  0
LINE
  5
198
  8
DEFAULT
 10
170.9670819546124
 20
150.310819972598
 30
0.0000000000000284
 11
171.0360573530654
 21
150.30777530518
 31
0.0000000000000284
  0
LINE
  5
199
  8
DEFAULT
 10
171.0360573530654
 20
150.30777530518
 30
0.0000000000000284
 11
171.1048865617117
 21
150.3023516875174
 31
0.0000000000000284
  0
LINE
  5
19A
  8
DEFAULT
 10
171.1048865617117
 20
150.3023516875174
 30
0.0000000000000284
 11
171.1734875554828
 21
150.2945555830378
 31
0.0000000000000284
  0
LINE
  5
19B
  8
DEFAULT
 10
171.1734875554828
 20
150.2945555830378
 30
0.0000000000000284
 11
171.2417785812779
 21
150.2843962825063
 31
0.0000000000000284
  0
LINE
  5
19C
  8
DEFAULT
 10
171.2417785812779
 20
150.2843962825063
 30
0.0000000000000284
 11
171.309678255391
 21
150.2718858929533
 31
0.0000000000000284
  0
LINE
  5
19D
  8
DEFAULT
 10
171.309678255391
 20
150.2718858929533
 30
0.0000000000000284
 11
171.3771056604973
 21
150.2570393232464
 31
0.0000000000000284
  0
LINE
  5
19E
  8
DEFAULT
 10
171.3771056604973
 20
150.2570393232464
 30
0.0000000000000284
 11
171.443980442084
 21
150.2398742663233
 31
0.0000000000000284
  0
LINE
  5
19F
  8
DEFAULT
 10
171.443980442084
 20
150.2398742663233
 30
0.0000000000000284
 11
171.51022290421
 21
150.2204111781068
 31
0.0000000000000284
  0
LINE
  5
1A0
  8
DEFAULT
 10
171.51022290421
 20
150.2204111781068
 30
0.0000000000000284
 11
171.5757541044813
 21
150.1986732531269
 31
0.0000000000000284
  0
LINE
  5
1A1
  8
DEFAULT
 10
171.5757541044813
 20
150.1986732531269
 30
0.0000000000000284
 11
171.6404959481283
 21
150.1746863968795
 31
0.0000000000000284
  0
LINE
  5
1A2
  8
DEFAULT
 10
171.6404959481283
 20
150.1746863968795
 30
0.0000000000000284
 11
171.7043712810723
 21
150.1484791949547
 31
0.0000000000000284
  0
LINE
  5
1A3
  8
DEFAULT
 10
171.7043712810723
 20
150.1484791949547
 30
0.0000000000000284
 11
171.7673039818719
 21
150.12008287897
 31
0.0000000000000284
  0
LINE
  5
1A4
  8
DEFAULT
 10
171.7673039818719
 20
150.12008287897
 30
0.0000000000000284
 11
171.8292190524384
 21
150.0895312893521
 31
0.0000000000000284
  0
LINE
  5
1A5
  8
DEFAULT
 10
171.8292190524384
 20
150.0895312893521
 30
0.0000000000000284
 11
171.890042707412
 21
150.0568608350075
 31
0.0000000000000284
  0
LINE
  5
1A6
  8
DEFAULT
 10
171.890042707412
 20
150.0568608350075
 30
0.0000000000000284
 11
171.9497024620938
 21
150.0221104499341
 31
0.0000000000000284
  0
LINE
  5
1A7
  8
DEFAULT
 10
171.9497024620938
 20
150.0221104499341
 30
0.0000000000000284
 11
172.0081272188266
 21
149.9853215468225
 31
0.0000000000000284
  0
LINE
  5
1A8
  8
DEFAULT
 10
172.0081272188266
 20
149.9853215468225
 30
0.0000000000000284
 11
172.0652473517236
 21
149.9465379677038
 31
0.0000000000000284
  0
LINE
  5
1A9
  8
DEFAULT
 10
172.0652473517236
 20
149.9465379677038
 30
0.0000000000000284
 11
172.1209947896432
 21
149.9058059317021
 31
0.0000000000000284
  0
LINE
  5
1AA
  8
DEFAULT
 10
172.1209947896432
 20
149.9058059317021
 30
0.0000000000000284
 11
172.1753030973099
 21
149.8631739799545
 31
0.0000000000000284
  0
LINE
  5
1AB
  8
DEFAULT
 10
172.1753030973099
 20
149.8631739799545
 30
0.0000000000000284
 11
172.2281075544874
 21
149.8186929177635
 31
0.0000000000000284
  0
LINE
  5
1AC
  8
DEFAULT
 10
172.2281075544874
 20
149.8186929177635
 30
0.0000000000000284
 11
172.2793452331059
 21
149.7724157540517
 31
0.0000000000000284
  0
LINE
  5
1AD
  8
DEFAULT
 10
172.2793452331059
 20
149.7724157540517
 30
0.0000000000000284
 11
172.3289550722557
 21
149.7243976381893
 31
0.0000000000000284
  0
LINE
  5
1AE
  8
DEFAULT
 10
172.3289550722557
 20
149.7243976381893
 30
0.0000000000000284
 11
172.3768779509539
 21
149.6746957942727
 31
0.0000000000000284
  0
LINE
  5
1AF
  8
DEFAULT
 10
172.3768779509539
 20
149.6746957942727
 30
0.0000000000000284
 11
172.4230567586004
 21
149.6233694529284
 31
0.0000000000000284
  0
LINE
  5
1B0
  8
DEFAULT
 10
172.4230567586004
 20
149.6233694529284
 30
0.0000000000000284
 11
172.4674364630373
 21
149.5704797807275
 31
0.0000000000000284
  0
LINE
  5
1B1
  8
DEFAULT
 10
172.4674364630373
 20
149.5704797807275
 30
0.0000000000000284
 11
172.5099641761323
 21
149.5160898072916
 31
0.0000000000000284
  0
LINE
  5
1B2
  8
DEFAULT
 10
172.5099641761323
 20
149.5160898072916
 30
0.0000000000000284
 11
172.5505892168059
 21
149.4602643501802
 31
0.0000000000000284
  0
LINE
  5
1B3
  8
DEFAULT
 10
172.5505892168059
 20
149.4602643501802
 30
0.0000000000000284
 11
172.5892631714294
 21
149.4030699376453
 31
0.0000000000000284
  0
LINE
  5
1B4
  8
DEFAULT
 10
172.5892631714294
 20
149.4030699376453
 30
0.0000000000000284
 11
172.6259399515203
 21
149.3445747293492
 31
0.0000000000000284
  0
LINE
  5
1B5
  8
DEFAULT
 10
172.6259399515203
 20
149.3445747293492
 30
0.0000000000000284
 11
172.6605758486666
 21
149.2848484351371
 31
0.0000000000000284
  0
LINE
  5
1B6
  8
DEFAULT
 10
172.6605758486666
 20
149.2848484351371
 30
0.0000000000000284
 11
172.6931295866152
 21
149.2239622319626
 31
0.0000000000000284
  0
LINE
  5
1B7
  8
DEFAULT
 10
172.6931295866152
 20
149.2239622319626
 30
0.0000000000000284
 11
172.7235623704613
 21
149.1619886790645
 31
0.0000000000000284
  0
LINE
  5
1B8
  8
DEFAULT
 10
172.7235623704613
 20
149.1619886790645
 30
0.0000000000000284
 11
172.7518379328813
 21
149.099001631497
 31
0.0000000000000284
  0
LINE
  5
1B9
  8
DEFAULT
 10
172.7518379328813
 20
149.099001631497
 30
0.0000000000000284
 11
172.7779225773531
 21
149.035076152115
 31
0.0000000000000284
  0
LINE
  5
1BA
  8
DEFAULT
 10
172.7779225773531
 20
149.035076152115
 30
0.0000000000000284
 11
172.801785218313
 21
148.9702884221204
 31
0.0000000000000284
  0
LINE
  5
1BB
  8
DEFAULT
 10
172.801785218313
 20
148.9702884221204
 30
0.0000000000000284
 11
172.8233974182008
 21
148.9047156502754
 31
0.0000000000000284
  0
LINE
  5
1BC
  8
DEFAULT
 10
172.8233974182008
 20
148.9047156502754
 30
0.0000000000000284
 11
172.8427334213494
 21
148.8384359808912
 31
0.0000000000000284
  0
LINE
  5
1BD
  8
DEFAULT
 10
172.8427334213494
 20
148.8384359808912
 30
0.0000000000000284
 11
172.8597701846786
 21
148.7715284007025
 31
0.0000000000000284
  0
LINE
  5
1BE
  8
DEFAULT
 10
172.8597701846786
 20
148.7715284007025
 30
0.0000000000000284
 11
172.8744874051553
 21
148.7040726447371
 31
0.0000000000000284
  0
LINE
  5
1BF
  8
DEFAULT
 10
172.8744874051553
 20
148.7040726447371
 30
0.0000000000000284
 11
172.8868675439901
 21
148.6361491012939
 31
0.0000000000000284
  0
LINE
  5
1C0
  8
DEFAULT
 10
172.8868675439901
 20
148.6361491012939
 30
0.0000000000000284
 11
172.8968958475373
 21
148.5678387161435
 31
0.0000000000000284
  0
LINE
  5
1C1
  8
DEFAULT
 10
172.8968958475373
 20
148.5678387161435
 30
0.0000000000000284
 11
172.9045603648781
 21
148.4992228960626
 31
0.0000000000000284
  0
LINE
  5
1C2
  8
DEFAULT
 10
172.9045603648781
 20
148.4992228960626
 30
0.0000000000000284
 11
172.9098519620625
 21
148.4303834118209
 31
0.0000000000000284
  0
LINE
  5
1C3
  8
DEFAULT
 10
172.9098519620625
 20
148.4303834118209
 30
0.0000000000000284
 11
172.9127643329939
 21
148.3614023007324
 31
0.0000000000000284
  0
LINE
  5
1C4
  8
DEFAULT
 10
172.9127643329939
 20
148.3614023007324
 30
0.0000000000000284
 11
172.913294006945
 21
148.2923617688911
 31
0.0000000000000284
  0
LINE
  5
1C5
  8
DEFAULT
 10
172.913294006945
 20
148.2923617688911
 30
0.0000000000000284
 11
172.9114403526933
 21
148.2233440932032
 31
0.0000000000000284
  0
LINE
  5
1C6
  8
DEFAULT
 10
172.9114403526933
 20
148.2233440932032
 30
0.0000000000000284
 11
172.9072055792736
 21
148.1544315233373
 31
0.0000000000000284
  0
LINE
  5
1C7
  8
DEFAULT
 10
172.9072055792736
 20
148.1544315233373
 30
0.0000000000000284
 11
172.9005947333454
 21
148.0857061837052
 31
0.0000000000000284
  0
LINE
  5
1C8
  8
DEFAULT
 10
172.9005947333454
 20
148.0857061837052
 30
0.0000000000000284
 11
172.8916156931788
 21
148.0172499755928
 31
0.0000000000000284
  0
LINE
  5
1C9
  8
DEFAULT
 10
172.8916156931788
 20
148.0172499755928
 30
0.0000000000000284
 11
172.8802791592655
 21
147.9491444795572
 31
0.0000000000000284
  0
LINE
  5
1CA
  8
DEFAULT
 10
172.8802791592655
 20
147.9491444795572
 30
0.0000000000000284
 11
172.8665986415673
 21
147.8814708582048
 31
0.0000000000000284
  0
LINE
  5
1CB
  8
DEFAULT
 10
172.8665986415673
 20
147.8814708582048
 30
0.0000000000000284
 11
172.8505904434156
 21
147.8143097594692
 31
0.0000000000000284
  0
LINE
  5
1CC
  8
DEFAULT
 10
172.8505904434156
 20
147.8143097594692
 30
0.0000000000000284
 11
172.8322736420828
 21
147.7477412205009
 31
0.0000000000000284
  0
LINE
  5
1CD
  8
DEFAULT
 10
172.8322736420828
 20
147.7477412205009
 30
0.0000000000000284
 11
172.811670066047
 21
147.6818445722859
 31
0.0000000000000284
  0
LINE
  5
1CE
  8
DEFAULT
 10
172.811670066047
 20
147.6818445722859
 30
0.0000000000000284
 11
172.7888042689793
 21
147.616698345105
 31
0.0000000000000284
  0
LINE
  5
1CF
  8
DEFAULT
 10
172.7888042689793
 20
147.616698345105
 30
0.0000000000000284
 11
172.7637035004822
 21
147.5523801749485
 31
0.0000000000000284
  0
LINE
  5
1D0
  8
DEFAULT
 10
172.7637035004822
 20
147.5523801749485
 30
0.0000000000000284
 11
172.7363976736157
 21
147.488966710995
 31
0.0000000000000284
  0
LINE
  5
1D1
  8
DEFAULT
 10
172.7363976736157
 20
147.488966710995
 30
0.0000000000000284
 11
172.7069193292498
 21
147.4265335242681
 31
0.0000000000000284
  0
LINE
  5
1D2
  8
DEFAULT
 10
172.7069193292498
 20
147.4265335242681
 30
0.0000000000000284
 11
172.6753035972845
 21
147.3651550175762
 31
0.0000000000000284
  0
LINE
  5
1D3
  8
DEFAULT
 10
172.6753035972845
 20
147.3651550175762
 30
0.0000000000000284
 11
172.6415881547851
 21
147.3049043368455
 31
0.0000000000000284
  0
LINE
  5
1D4
  8
DEFAULT
 10
172.6415881547851
 20
147.3049043368455
 30
0.0000000000000284
 11
172.6058131810816
 21
147.245853283951
 31
0.0000000000000284
  0
LINE
  5
1D5
  8
DEFAULT
 10
172.6058131810816
 20
147.245853283951
 30
0.0000000000000284
 11
172.5680213098862
 21
147.1880722311483
 31
0.0000000000000284
  0
LINE
  5
1D6
  8
DEFAULT
 10
172.5680213098862
 20
147.1880722311483
 30
0.0000000000000284
 11
172.528257578486
 21
147.13163003721
 31
0.0000000000000284
  0
LINE
  5
1D7
  8
DEFAULT
 10
172.528257578486
 20
147.13163003721
 30
0.0000000000000284
 11
172.4865693740711
 21
147.0765939653653
 31
0.0000000000000284
  0
LINE
  5
1D8
  8
DEFAULT
 10
172.4865693740711
 20
147.0765939653653
 30
0.0000000000000284
 11
172.4430063772626
 21
147.0230296031409
 31
0.0000000000000284
  0
LINE
  5
1D9
  8
DEFAULT
 10
172.4430063772626
 20
147.0230296031409
 30
0.0000000000000284
 11
172.397620502907
 21
146.9710007841998
 31
0.0000000000000284
  0
LINE
  5
1DA
  8
DEFAULT
 10
172.397620502907
 20
146.9710007841998
 30
0.0000000000000284
 11
172.3504658382085
 21
146.9205695122685
 31
0.0000000000000284
  0
LINE
  5
1DB
  8
DEFAULT
 10
172.3504658382085
 20
146.9205695122685
 30
0.0000000000000284
 11
172.3015985782721
 21
146.8717958872469
 31
0.0000000000000284
  0
LINE
  5
1DC
  8
DEFAULT
 10
172.3015985782721
 20
146.8717958872469
 30
0.0000000000000284
 11
172.251076959135
 21
146.8247380335856
 31
0.0000000000000284
  0
LINE
  5
1DD
  8
DEFAULT
 10
172.251076959135
 20
146.8247380335856
 30
0.0000000000000284
 11
172.1989611883654
 21
146.7794520310183
 31
0.0000000000000284
  0
ARC
  5
1DE
  8
DEFAULT
 10
135.0
 20
188.0
 30
0.0000000000000284
 40
26.0
 50
318.4714305559752
 51
121.5285694280597
  0
LINE
  5
1DF
  8
DEFAULT
 10
157.7433563970549
 20
130.0225698712986
 30
0.0000000000000284
 11
154.4642558470957
 21
170.7621711251445
 31
0.0000000000000284
  0
LINE
  5
1E0
  8
DEFAULT
 10
79.05914377556724
 20
220.1410540033718
 30
0.0000000000001421
 11
121.4039850426109
 21
210.1618676396745
 31
0.0000000000000284
  0
LINE
  5
1E1
  8
DEFAULT
 10
79.05914377556724
 20
90.14105400337178
 30
0.0000000000001421
 11
121.4039850426109
 21
80.16186763967448
 31
0.0000000000000284
  0
LINE
  5
1E2
  8
DEFAULT
 10
157.7433563970549
 20
0.0225698712986286
 30
0.0000000000000284
 11
154.4642558470957
 21
40.7621711251445
 31
0.0000000000000284
  0
ARC
  5
1E3
  8
DEFAULT
 10
135.0
 20
58.0
 30
0.0000000000000284
 40
26.0
 50
318.4714305559752
 51
121.5285694280597
  0
LINE
  5
1E4
  8
DEFAULT
 10
172.1989611883653
 20
16.7794520310182
 30
0.0000000000000284
 11
169.1347834158894
 21
14.20830159227205
 31
0.0000000000000284
  0
LINE
  5
1E5
  8
DEFAULT
 10
169.1347834158894
 20
14.20830159227205
 30
0.0000000000000284
 11
169.0811356008363
 21
14.16484140898361
 31
0.0000000000000284
  0
LINE
  5
1E6
  8
DEFAULT
 10
169.0811356008363
 20
14.16484140898361
 30
0.0000000000000284
 11
169.0260196746147
 21
14.12325883729584
 31
0.0000000000000284
  0
LINE
  5
1E7
  8
DEFAULT
 10
169.0260196746147
 20
14.12325883729584
 30
0.0000000000000284
 11
168.9695013199154
 21
14.08360343194523
 31
0.0000000000000284
  0
LINE
  5
1E8
  8
DEFAULT
 10
168.9695013199154
 20
14.08360343194523
 30
0.0000000000000284
 11
168.9116478907298
 21
14.04592245102774
 31
0.0000000000000284
  0
LINE
  5
1E9
  8
DEFAULT
 10
168.9116478907298
 20
14.04592245102774
 30
0.0000000000000284
 11
168.8525283320828
 21
14.01026079968041
 31
0.0000000000000284
  0
LINE
  5
1EA
  8
DEFAULT
 10
168.8525283320828
 20
14.01026079968041
 30
0.0000000000000284
 11
168.7922130978696
 21
13.9766609765671
 31
0.0000000000000284
  0
LINE
  5
1EB
  8
DEFAULT
 10
168.7922130978696
 20
13.9766609765671
 30
0.0000000000000284
 11
168.7307740668948
 21
13.94516302323197
 31
0.0000000000000284
  0
LINE
  5
1EC
  8
DEFAULT
 10
168.7307740668948
 20
13.94516302323197
 30
0.0000000000000284
 11
168.6682844572124
 21
13.91580447638124
 31
0.0000000000000284
  0
LINE
  5
1ED
  8
DEFAULT
 10
168.6682844572124
 20
13.91580447638124
 30
0.0000000000000284
 11
168.6048187388714
 21
13.88862032315002
 31
0.0000000000000284
  0
LINE
  5
1EE
  8
DEFAULT
 10
168.6048187388714
 20
13.88862032315002
 30
0.0000000000000284
 11
168.5404525451677
 21
13.86364295940743
 31
0.0000000000000284
  0
LINE
  5
1EF
  8
DEFAULT
 10
168.5404525451677
 20
13.86364295940743
 30
0.0000000000000284
 11
168.4752625825106
 21
13.84090215114987
 31
0.0000000000000284
  0
LINE
  5
1F0
  8
DEFAULT
 10
168.4752625825106
 20
13.84090215114987
 30
0.0000000000000284
 11
168.4093265390107
 21
13.82042499902829
 31
0.0000000000000284
  0
LINE
  5
1F1
  8
DEFAULT
 10
168.4093265390107
 20
13.82042499902829
 30
0.0000000000000284
 11
168.3427229918969
 21
13.80223590605184
 31
0.0000000000000284
  0
LINE
  5
1F2
  8
DEFAULT
 10
168.3427229918969
 20
13.80223590605184
 30
0.0000000000000284
 11
168.2755313138752
 21
13.78635654850636
 31
0.0000000000000284
  0
LINE
  5
1F3
  8
DEFAULT
 10
168.2755313138752
 20
13.78635654850636
 30
0.0000000000000284
 11
168.2078315785379
 21
13.77280585012233
 31
0.0000000000000284
  0
LINE
  5
1F4
  8
DEFAULT
 10
168.2078315785379
 20
13.77280585012233
 30
0.0000000000000284
 11
168.139704464939
 21
13.76159995952308
 31
0.0000000000000284
  0
LINE
  5
1F5
  8
DEFAULT
 10
168.139704464939
 20
13.76159995952308
 30
0.0000000000000284
 11
168.0712311614473
 21
13.75275223098021
 31
0.0000000000000284
  0
LINE
  5
1F6
  8
DEFAULT
 10
168.0712311614473
 20
13.75275223098021
 30
0.0000000000000284
 11
168.0024932689925
 21
13.74627320849904
 31
0.0000000000000284
  0
LINE
  5
1F7
  8
DEFAULT
 10
168.0024932689925
 20
13.74627320849904
 30
0.0000000000000284
 11
167.9335727038201
 21
13.74217061325308
 31
0.0000000000000284
  0
LINE
  5
1F8
  8
DEFAULT
 10
167.9335727038201
 20
13.74217061325308
 30
0.0000000000000284
 11
167.86455159987
 21
13.74044933438262
 31
0.0000000000000284
  0
LINE
  5
1F9
  8
DEFAULT
 10
167.86455159987
 20
13.74044933438262
 30
0.0000000000000284
 11
167.7955122108962
 21
13.74111142316823
 31
0.0000000000000284
  0
LINE
  5
1FA
  8
DEFAULT
 10
167.7955122108962
 20
13.74111142316823
 30
0.0000000000000284
 11
167.7265368124432
 21
13.74415609058618
 31
0.0000000000000284
  0
LINE
  5
1FB
  8
DEFAULT
 10
167.7265368124432
 20
13.74415609058618
 30
0.0000000000000284
 11
167.6577076037968
 21
13.74957970824878
 31
0.0000000000000284
  0
LINE
  5
1FC
  8
DEFAULT
 10
167.6577076037968
 20
13.74957970824878
 30
0.0000000000000284
 11
167.5891066100258
 21
13.75737581272836
 31
0.0000000000000284
  0
LINE
  5
1FD
  8
DEFAULT
 10
167.5891066100258
 20
13.75737581272836
 30
0.0000000000000284
 11
167.5208155842307
 21
13.76753511325989
 31
0.0000000000000284
  0
LINE
  5
1FE
  8
DEFAULT
 10
167.5208155842307
 20
13.76753511325989
 30
0.0000000000000284
 11
167.4529159101175
 21
13.78004550281292
 31
0.0000000000000284
  0
LINE
  5
1FF
  8
DEFAULT
 10
167.4529159101175
 20
13.78004550281292
 30
0.0000000000000284
 11
167.3854885050112
 21
13.79489207251982
 31
0.0000000000000284
  0
LINE
  5
200
  8
DEFAULT
 10
167.3854885050112
 20
13.79489207251982
 30
0.0000000000000284
 11
167.3186137234245
 21
13.81205712944289
 31
0.0000000000000284
  0
LINE
  5
201
  8
DEFAULT
 10
167.3186137234245
 20
13.81205712944289
 30
0.0000000000000284
 11
167.2523712612985
 21
13.83152021765941
 31
0.0000000000000284
  0
LINE
  5
202
  8
DEFAULT
 10
167.2523712612985
 20
13.83152021765941
 30
0.0000000000000284
 11
167.1868400610272
 21
13.85325814263935
 31
0.0000000000000284
  0
LINE
  5
203
  8
DEFAULT
 10
167.1868400610272
 20
13.85325814263935
 30
0.0000000000000284
 11
167.1220982173803
 21
13.87724499888671
 31
0.0000000000000284
  0
LINE
  5
204
  8
DEFAULT
 10
167.1220982173803
 20
13.87724499888671
 30
0.0000000000000284
 11
167.0582228844363
 21
13.9034522008116
 31
0.0000000000000284
  0
LINE
  5
205
  8
DEFAULT
 10
167.0582228844363
 20
13.9034522008116
 30
0.0000000000000284
 11
166.9952901836366
 21
13.93184851679622
 31
0.0000000000000284
  0
LINE
  5
206
  8
DEFAULT
 10
166.9952901836366
 20
13.93184851679622
 30
0.0000000000000284
 11
166.9333751130702
 21
13.96240010641419
 31
0.0000000000000284
  0
LINE
  5
207
  8
DEFAULT
 10
166.9333751130702
 20
13.96240010641419
 30
0.0000000000000284
 11
166.8725514580965
 21
13.99507056075879
 31
0.0000000000000284
  0
LINE
  5
208
  8
DEFAULT
 10
166.8725514580965
 20
13.99507056075879
 30
0.0000000000000284
 11
166.8128917034147
 21
14.02982094583219
 31
0.0000000000000284
  0
LINE
  5
209
  8
DEFAULT
 10
166.8128917034147
 20
14.02982094583219
 30
0.0000000000000284
 11
166.754466946682
 21
14.06660984894378
 31
0.0000000000000284
  0
LINE
  5
20A
  8
DEFAULT
 10
166.754466946682
 20
14.06660984894378
 30
0.0000000000000284
 11
166.6973468137849
 21
14.1053934280625
 31
0.0000000000000284
  0
LINE
  5
20B
  8
DEFAULT
 10
166.6973468137849
 20
14.1053934280625
 30
0.0000000000000284
 11
166.6415993758654
 21
14.14612546406418
 31
0.0000000000000284
  0
LINE
  5
20C
  8
DEFAULT
 10
166.6415993758654
 20
14.14612546406418
 30
0.0000000000000284
 11
166.5872910681986
 21
14.18875741581177
 31
0.0000000000000284
  0
LINE
  5
20D
  8
DEFAULT
 10
166.5872910681986
 20
14.18875741581177
 30
0.0000000000000284
 11
166.5344866110212
 21
14.23323847800272
 31
0.0000000000000284
  0
LINE
  5
20E
  8
DEFAULT
 10
166.5344866110212
 20
14.23323847800272
 30
0.0000000000000284
 11
166.4832489324027
 21
14.27951564171463
 31
0.0000000000000284
  0
LINE
  5
20F
  8
DEFAULT
 10
166.4832489324027
 20
14.27951564171463
 30
0.0000000000000284
 11
166.4336390932528
 21
14.32753375757694
 31
0.0000000000000284
  0
LINE
  5
210
  8
DEFAULT
 10
166.4336390932528
 20
14.32753375757694
 30
0.0000000000000284
 11
166.3857162145546
 21
14.37723560149356
 31
0.0000000000000284
  0
LINE
  5
211
  8
DEFAULT
 10
166.3857162145546
 20
14.37723560149356
 30
0.0000000000000284
 11
166.3395374069082
 21
14.42856194283783
 31
0.0000000000000284
  0
LINE
  5
212
  8
DEFAULT
 10
166.3395374069082
 20
14.42856194283783
 30
0.0000000000000284
 11
166.2951577024712
 21
14.48145161503882
 31
0.0000000000000284
  0
LINE
  5
213
  8
DEFAULT
 10
166.2951577024712
 20
14.48145161503882
 30
0.0000000000000284
 11
166.2526299893763
 21
14.53584158847465
 31
0.0000000000000284
  0
LINE
  5
214
  8
DEFAULT
 10
166.2526299893763
 20
14.53584158847465
 30
0.0000000000000284
 11
166.2120049487027
 21
14.59166704558613
 31
0.0000000000000284
  0
LINE
  5
215
  8
DEFAULT
 10
166.2120049487027
 20
14.59166704558613
 30
0.0000000000000284
 11
166.1733309940792
 21
14.64886145812104
 31
0.0000000000000284
  0
LINE
  5
216
  8
DEFAULT
 10
166.1733309940792
 20
14.64886145812104
 30
0.0000000000000284
 11
166.1366542139883
 21
14.7073566664171
 31
0.0000000000000284
  0
LINE
  5
217
  8
DEFAULT
 10
166.1366542139883
 20
14.7073566664171
 30
0.0000000000000284
 11
166.1020183168419
 21
14.76708296062917
 31
0.0000000000000284
  0
LINE
  5
218
  8
DEFAULT
 10
166.1020183168419
 20
14.76708296062917
 30
0.0000000000000284
 11
166.0694645788934
 21
14.82796916380372
 31
0.0000000000000284
  0
LINE
  5
219
  8
DEFAULT
 10
166.0694645788934
 20
14.82796916380372
 30
0.0000000000000284
 11
166.0390317950473
 21
14.88994271670182
 31
0.0000000000000284
  0
LINE
  5
21A
  8
DEFAULT
 10
166.0390317950473
 20
14.88994271670182
 30
0.0000000000000284
 11
166.0107562326273
 21
14.95292976426931
 31
0.0000000000000284
  0
LINE
  5
21B
  8
DEFAULT
 10
166.0107562326273
 20
14.95292976426931
 30
0.0000000000000284
 11
165.9846715881555
 21
15.01685524365128
 31
0.0000000000000284
  0
LINE
  5
21C
  8
DEFAULT
 10
165.9846715881555
 20
15.01685524365128
 30
0.0000000000000284
 11
165.9608089471956
 21
15.0816429736459
 31
0.0000000000000284
  0
LINE
  5
21D
  8
DEFAULT
 10
165.9608089471956
 20
15.0816429736459
 30
0.0000000000000284
 11
165.9391967473078
 21
15.14721574549098
 31
0.0000000000000284
  0
LINE
  5
21E
  8
DEFAULT
 10
165.9391967473078
 20
15.14721574549098
 30
0.0000000000000284
 11
165.9198607441591
 21
15.21349541487513
 31
0.0000000000000284
  0
LINE
  5
21F
  8
DEFAULT
 10
165.9198607441591
 20
15.21349541487513
 30
0.0000000000000284
 11
165.90282398083
 21
15.28040299506381
 31
0.0000000000000284
  0
LINE
  5
220
  8
DEFAULT
 10
165.90282398083
 20
15.28040299506381
 30
0.0000000000000284
 11
165.8881067603533
 21
15.34785875102929
 31
0.0000000000000284
  0
LINE
  5
221
  8
DEFAULT
 10
165.8881067603533
 20
15.34785875102929
 30
0.0000000000000284
 11
165.8757266215185
 21
15.41578229447241
 31
0.0000000000000284
  0
LINE
  5
222
  8
DEFAULT
 10
165.8757266215185
 20
15.41578229447241
 30
0.0000000000000284
 11
165.8656983179714
 21
15.48409267962285
 31
0.0000000000000284
  0
LINE
  5
223
  8
DEFAULT
 10
165.8656983179714
 20
15.48409267962285
 30
0.0000000000000284
 11
165.8580338006305
 21
15.55270849970371
 31
0.0000000000000284
  0
LINE
  5
224
  8
DEFAULT
 10
165.8580338006305
 20
15.55270849970371
 30
0.0000000000000284
 11
165.8527422034462
 21
15.62154798394549
 31
0.0000000000000284
  0
LINE
  5
225
  8
DEFAULT
 10
165.8527422034462
 20
15.62154798394549
 30
0.0000000000000284
 11
165.8498298325147
 21
15.69052909503392
 31
0.0000000000000284
  0
LINE
  5
226
  8
DEFAULT
 10
165.8498298325147
 20
15.69052909503392
 30
0.0000000000000284
 11
165.8493001585636
 21
15.75956962687532
 31
0.0000000000000284
  0
LINE
  5
227
  8
DEFAULT
 10
165.8493001585636
 20
15.75956962687532
 30
0.0000000000000284
 11
165.8511538128153
 21
15.82858730256315
 31
0.0000000000000284
  0
LINE
  5
228
  8
DEFAULT
 10
165.8511538128153
 20
15.82858730256315
 30
0.0000000000000284
 11
165.855388586235
 21
15.89749987242903
 31
0.0000000000000284
  0
LINE
  5
229
  8
DEFAULT
 10
165.855388586235
 20
15.89749987242903
 30
0.0000000000000284
 11
165.8619994321632
 21
15.96622521206116
 31
0.0000000000000284
  0
LINE
  5
22A
  8
DEFAULT
 10
165.8619994321632
 20
15.96622521206116
 30
0.0000000000000284
 11
165.8709784723299
 21
16.03468142017351
 31
0.0000000000000284
  0
LINE
  5
22B
  8
DEFAULT
 10
165.8709784723299
 20
16.03468142017351
 30
0.0000000000000284
 11
165.8823150062432
 21
16.10278691620921
 31
0.0000000000000284
  0
LINE
  5
22C
  8
DEFAULT
 10
165.8823150062432
 20
16.10278691620921
 30
0.0000000000000284
 11
165.8959955239414
 21
16.17046053756159
 31
0.0000000000000284
  0
LINE
  5
22D
  8
DEFAULT
 10
165.8959955239414
 20
16.17046053756159
 30
0.0000000000000284
 11
165.912003722093
 21
16.2376216362972
 31
0.0000000000000284
  0
LINE
  5
22E
  8
DEFAULT
 10
165.912003722093
 20
16.2376216362972
 30
0.0000000000000284
 11
165.9303205234259
 21
16.30419017526547
 31
0.0000000000000284
  0
LINE
  5
22F
  8
DEFAULT
 10
165.9303205234259
 20
16.30419017526547
 30
0.0000000000000284
 11
165.9509240994616
 21
16.3700868234805
 31
0.0000000000000284
  0
LINE
  5
230
  8
DEFAULT
 10
165.9509240994616
 20
16.3700868234805
 30
0.0000000000000284
 11
165.9737898965293
 21
16.43523305066132
 31
0.0000000000000284
  0
LINE
  5
231
  8
DEFAULT
 10
165.9737898965293
 20
16.43523305066132
 30
0.0000000000000284
 11
165.9988906650265
 21
16.49955122081787
 31
0.0000000000000284
  0
LINE
  5
232
  8
DEFAULT
 10
165.9988906650265
 20
16.49955122081787
 30
0.0000000000000284
 11
166.026196491893
 21
16.56296468477131
 31
0.0000000000000284
  0
LINE
  5
233
  8
DEFAULT
 10
166.026196491893
 20
16.56296468477131
 30
0.0000000000000284
 11
166.0556748362589
 21
16.62539787149824
 31
0.0000000000000284
  0
LINE
  5
234
  8
DEFAULT
 10
166.0556748362589
 20
16.62539787149824
 30
0.0000000000000284
 11
166.0872905682242
 21
16.68677637819021
 31
0.0000000000000284
  0
LINE
  5
235
  8
DEFAULT
 10
166.0872905682242
 20
16.68677637819021
 30
0.0000000000000284
 11
166.1210060107236
 21
16.74702705892086
 31
0.0000000000000284
  0
LINE
  5
236
  8
DEFAULT
 10
166.1210060107236
 20
16.74702705892086
 30
0.0000000000000284
 11
166.1567809844271
 21
16.80607811181537
 31
0.0000000000000284
  0
LINE
  5
237
  8
DEFAULT
 10
166.1567809844271
 20
16.80607811181537
 30
0.0000000000000284
 11
166.1945728556225
 21
16.86385916461805
 31
0.0000000000000284
  0
LINE
  5
238
  8
DEFAULT
 10
166.1945728556225
 20
16.86385916461805
 30
0.0000000000000284
 11
166.2343365870227
 21
16.92030135855633
 31
0.0000000000000284
  0
LINE
  5
239
  8
DEFAULT
 10
166.2343365870227
 20
16.92030135855633
 30
0.0000000000000284
 11
166.2760247914376
 21
16.97533743040108
 31
0.0000000000000284
  0
LINE
  5
23A
  8
DEFAULT
 10
166.2760247914376
 20
16.97533743040108
 30
0.0000000000000284
 11
166.3195877882461
 21
17.0289017926254
 31
0.0000000000000284
  0
LINE
  5
23B
  8
DEFAULT
 10
166.3195877882461
 20
17.0289017926254
 30
0.0000000000000284
 11
166.3649736626017
 21
17.0809306115666
 31
0.0000000000000284
  0
LINE
  5
23C
  8
DEFAULT
 10
166.3649736626017
 20
17.0809306115666
 30
0.0000000000000284
 11
166.4121283273002
 21
17.13136188349788
 31
0.0000000000000284
  0
LINE
  5
23D
  8
DEFAULT
 10
166.4121283273002
 20
17.13136188349788
 30
0.0000000000000284
 11
166.4609955872366
 21
17.18013550851946
 31
0.0000000000000284
  0
LINE
  5
23E
  8
DEFAULT
 10
166.4609955872366
 20
17.18013550851946
 30
0.0000000000000284
 11
166.5115172063737
 21
17.22719336218069
 31
0.0000000000000284
  0
LINE
  5
23F
  8
DEFAULT
 10
166.5115172063737
 20
17.22719336218069
 30
0.0000000000000284
 11
166.5636329771433
 21
17.27247936474804
 31
0.0000000000000284
  0
LINE
  5
240
  8
DEFAULT
 10
166.5636329771433
 20
17.27247936474804
 30
0.0000000000000284
 11
169.6278107496192
 21
19.84362980349408
 31
0.0000000000000284
  0
LINE
  5
241
  8
DEFAULT
 10
169.6278107496192
 20
19.84362980349408
 30
0.0000000000000284
 11
169.6814585646723
 21
19.88708998678253
 31
0.0000000000000284
  0
LINE
  5
242
  8
DEFAULT
 10
169.6814585646723
 20
19.88708998678253
 30
0.0000000000000284
 11
169.7365744908939
 21
19.9286725584703
 31
0.0000000000000284
  0
LINE
  5
243
  8
DEFAULT
 10
169.7365744908939
 20
19.9286725584703
 30
0.0000000000000284
 11
169.7930928455932
 21
19.96832796382091
 31
0.0000000000000284
  0
LINE
  5
244
  8
DEFAULT
 10
169.7930928455932
 20
19.96832796382091
 30
0.0000000000000284
 11
169.8509462747788
 21
20.0060089447384
 31
0.0000000000000284
  0
LINE
  5
245
  8
DEFAULT
 10
169.8509462747788
 20
20.0060089447384
 30
0.0000000000000284
 11
169.9100658334258
 21
20.04167059608572
 31
0.0000000000000284
  0
LINE
  5
246
  8
DEFAULT
 10
169.9100658334258
 20
20.04167059608572
 30
0.0000000000000284
 11
169.970381067639
 21
20.07527041919904
 31
0.0000000000000284
  0
LINE
  5
247
  8
DEFAULT
 10
169.970381067639
 20
20.07527041919904
 30
0.0000000000000284
 11
170.0318200986139
 21
20.10676837253418
 31
0.0000000000000284
  0
LINE
  5
248
  8
DEFAULT
 10
170.0318200986139
 20
20.10676837253418
 30
0.0000000000000284
 11
170.0943097082962
 21
20.1361269193849
 31
0.0000000000000284
  0
LINE
  5
249
  8
DEFAULT
 10
170.0943097082962
 20
20.1361269193849
 30
0.0000000000000284
 11
170.1577754266372
 21
20.16331107261612
 31
0.0000000000000284
  0
LINE
  5
24A
  8
DEFAULT
 10
170.1577754266372
 20
20.16331107261612
 30
0.0000000000000284
 11
170.2221416203409
 21
20.18828843635871
 31
0.0000000000000284
  0
LINE
  5
24B
  8
DEFAULT
 10
170.2221416203409
 20
20.18828843635871
 30
0.0000000000000284
 11
170.287331582998
 21
20.21102924461628
 31
0.0000000000000284
  0
LINE
  5
24C
  8
DEFAULT
 10
170.287331582998
 20
20.21102924461628
 30
0.0000000000000284
 11
170.3532676264979
 21
20.23150639673786
 31
0.0000000000000284
  0
LINE
  5
24D
  8
DEFAULT
 10
170.3532676264979
 20
20.23150639673786
 30
0.0000000000000284
 11
170.4198711736117
 21
20.24969548971431
 31
0.0000000000000284
  0
LINE
  5
24E
  8
DEFAULT
 10
170.4198711736117
 20
20.24969548971431
 30
0.0000000000000284
 11
170.4870628516334
 21
20.26557484725979
 31
0.0000000000000284
  0
LINE
  5
24F
  8
DEFAULT
 10
170.4870628516334
 20
20.26557484725979
 30
0.0000000000000284
 11
170.5547625869707
 21
20.27912554564383
 31
0.0000000000000284
  0
LINE
  5
250
  8
DEFAULT
 10
170.5547625869707
 20
20.27912554564383
 30
0.0000000000000284
 11
170.6228897005696
 21
20.29033143624308
 31
0.0000000000000284
  0
LINE
  5
251
  8
DEFAULT
 10
170.6228897005696
 20
20.29033143624308
 30
0.0000000000000284
 11
170.6913630040613
 21
20.29917916478595
 31
0.0000000000000284
  0
LINE
  5
252
  8
DEFAULT
 10
170.6913630040613
 20
20.29917916478595
 30
0.0000000000000284
 11
170.7601008965161
 21
20.30565818726713
 31
0.0000000000000284
  0
LINE
  5
253
  8
DEFAULT
 10
170.7601008965161
 20
20.30565818726713
 30
0.0000000000000284
 11
170.8290214616885
 21
20.30976078251309
 31
0.0000000000000284
  0
LINE
  5
254
  8
DEFAULT
 10
170.8290214616885
 20
20.30976078251309
 30
0.0000000000000284
 11
170.8980425656385
 21
20.31148206138355
 31
0.0000000000000284
  0
LINE
  5
255
  8
DEFAULT
 10
170.8980425656385
 20
20.31148206138355
 30
0.0000000000000284
 11
170.9670819546124
 21
20.31081997259794
 31
0.0000000000000284
  0
LINE
  5
256
  8
DEFAULT
 10
170.9670819546124
 20
20.31081997259794
 30
0.0000000000000284
 11
171.0360573530654
 21
20.30777530517999
 31
0.0000000000000284
  0
LINE
  5
257
  8
DEFAULT
 10
171.0360573530654
 20
20.30777530517999
 30
0.0000000000000284
 11
171.1048865617117
 21
20.3023516875174
 31
0.0000000000000284
  0
LINE
  5
258
  8
DEFAULT
 10
171.1048865617117
 20
20.3023516875174
 30
0.0000000000000284
 11
171.1734875554828
 21
20.29455558303782
 31
0.0000000000000284
  0
LINE
  5
259
  8
DEFAULT
 10
171.1734875554828
 20
20.29455558303782
 30
0.0000000000000284
 11
171.2417785812779
 21
20.2843962825063
 31
0.0000000000000284
  0
LINE
  5
25A
  8
DEFAULT
 10
171.2417785812779
 20
20.2843962825063
 30
0.0000000000000284
 11
171.309678255391
 21
20.27188589295327
 31
0.0000000000000284
  0
LINE
  5
25B
  8
DEFAULT
 10
171.309678255391
 20
20.27188589295327
 30
0.0000000000000284
 11
171.3771056604974
 21
20.25703932324638
 31
0.0000000000000284
  0
LINE
  5
25C
  8
DEFAULT
 10
171.3771056604974
 20
20.25703932324638
 30
0.0000000000000284
 11
171.443980442084
 21
20.23987426632331
 31
0.0000000000000284
  0
LINE
  5
25D
  8
DEFAULT
 10
171.443980442084
 20
20.23987426632331
 30
0.0000000000000284
 11
171.51022290421
 21
20.22041117810679
 31
0.0000000000000284
  0
LINE
  5
25E
  8
DEFAULT
 10
171.51022290421
 20
20.22041117810679
 30
0.0000000000000284
 11
171.5757541044813
 21
20.19867325312685
 31
0.0000000000000284
  0
LINE
  5
25F
  8
DEFAULT
 10
171.5757541044813
 20
20.19867325312685
 30
0.0000000000000284
 11
171.6404959481283
 21
20.1746863968795
 31
0.0000000000000284
  0
LINE
  5
260
  8
DEFAULT
 10
171.6404959481283
 20
20.1746863968795
 30
0.0000000000000284
 11
171.7043712810723
 21
20.14847919495461
 31
0.0000000000000284
  0
LINE
  5
261
  8
DEFAULT
 10
171.7043712810723
 20
20.14847919495461
 30
0.0000000000000284
 11
171.7673039818719
 21
20.12008287897
 31
0.0000000000000284
  0
LINE
  5
262
  8
DEFAULT
 10
171.7673039818719
 20
20.12008287897
 30
0.0000000000000284
 11
171.8292190524384
 21
20.08953128935203
 31
0.0000000000000284
  0
LINE
  5
263
  8
DEFAULT
 10
171.8292190524384
 20
20.08953128935203
 30
0.0000000000000284
 11
171.8900427074121
 21
20.05686083500743
 31
0.0000000000000284
  0
LINE
  5
264
  8
DEFAULT
 10
171.8900427074121
 20
20.05686083500743
 30
0.0000000000000284
 11
171.9497024620938
 21
20.02211044993404
 31
0.0000000000000284
  0
LINE
  5
265
  8
DEFAULT
 10
171.9497024620938
 20
20.02211044993404
 30
0.0000000000000284
 11
172.0081272188266
 21
19.98532154682245
 31
0.0000000000000284
  0
LINE
  5
266
  8
DEFAULT
 10
172.0081272188266
 20
19.98532154682245
 30
0.0000000000000284
 11
172.0652473517236
 21
19.94653796770373
 31
0.0000000000000284
  0
LINE
  5
267
  8
DEFAULT
 10
172.0652473517236
 20
19.94653796770373
 30
0.0000000000000284
 11
172.1209947896432
 21
19.90580593170206
 31
0.0000000000000284
  0
LINE
  5
268
  8
DEFAULT
 10
172.1209947896432
 20
19.90580593170206
 30
0.0000000000000284
 11
172.1753030973099
 21
19.86317397995447
 31
0.0000000000000284
  0
LINE
  5
269
  8
DEFAULT
 10
172.1753030973099
 20
19.86317397995447
 30
0.0000000000000284
 11
172.2281075544874
 21
19.81869291776353
 31
0.0000000000000284
  0
LINE
  5
26A
  8
DEFAULT
 10
172.2281075544874
 20
19.81869291776353
 30
0.0000000000000284
 11
172.2793452331059
 21
19.77241575405163
 31
0.0000000000000284
  0
LINE
  5
26B
  8
DEFAULT
 10
172.2793452331059
 20
19.77241575405163
 30
0.0000000000000284
 11
172.3289550722557
 21
19.72439763818931
 31
0.0000000000000284
  0
LINE
  5
26C
  8
DEFAULT
 10
172.3289550722557
 20
19.72439763818931
 30
0.0000000000000284
 11
172.3768779509539
 21
19.67469579427269
 31
0.0000000000000284
  0
LINE
  5
26D
  8
DEFAULT
 10
172.3768779509539
 20
19.67469579427269
 30
0.0000000000000284
 11
172.4230567586004
 21
19.62336945292843
 31
0.0000000000000284
  0
LINE
  5
26E
  8
DEFAULT
 10
172.4230567586004
 20
19.62336945292843
 30
0.0000000000000284
 11
172.4674364630373
 21
19.57047978072745
 31
0.0000000000000284
  0
LINE
  5
26F
  8
DEFAULT
 10
172.4674364630373
 20
19.57047978072745
 30
0.0000000000000284
 11
172.5099641761323
 21
19.51608980729162
 31
0.0000000000000284
  0
LINE
  5
270
  8
DEFAULT
 10
172.5099641761323
 20
19.51608980729162
 30
0.0000000000000284
 11
172.5505892168059
 21
19.46026435018015
 31
0.0000000000000284
  0
LINE
  5
271
  8
DEFAULT
 10
172.5505892168059
 20
19.46026435018015
 30
0.0000000000000284
 11
172.5892631714294
 21
19.40306993764524
 31
0.0000000000000284
  0
LINE
  5
272
  8
DEFAULT
 10
172.5892631714294
 20
19.40306993764524
 30
0.0000000000000284
 11
172.6259399515203
 21
19.34457472934918
 31
0.0000000000000284
  0
LINE
  5
273
  8
DEFAULT
 10
172.6259399515203
 20
19.34457472934918
 30
0.0000000000000284
 11
172.6605758486666
 21
19.28484843513712
 31
0.0000000000000284
  0
LINE
  5
274
  8
DEFAULT
 10
172.6605758486666
 20
19.28484843513712
 30
0.0000000000000284
 11
172.6931295866152
 21
19.22396223196257
 31
0.0000000000000284
  0
LINE
  5
275
  8
DEFAULT
 10
172.6931295866152
 20
19.22396223196257
 30
0.0000000000000284
 11
172.7235623704613
 21
19.16198867906447
 31
0.0000000000000284
  0
LINE
  5
276
  8
DEFAULT
 10
172.7235623704613
 20
19.16198867906447
 30
0.0000000000000284
 11
172.7518379328813
 21
19.09900163149699
 31
0.0000000000000284
  0
LINE
  5
277
  8
DEFAULT
 10
172.7518379328813
 20
19.09900163149699
 30
0.0000000000000284
 11
172.7779225773531
 21
19.03507615211502
 31
0.0000000000000284
  0
LINE
  5
278
  8
DEFAULT
 10
172.7779225773531
 20
19.03507615211502
 30
0.0000000000000284
 11
172.801785218313
 21
18.97028842212041
 31
0.0000000000000284
  0
LINE
  5
279
  8
DEFAULT
 10
172.801785218313
 20
18.97028842212041
 30
0.0000000000000284
 11
172.8233974182008
 21
18.90471565027533
 31
0.0000000000000284
  0
LINE
  5
27A
  8
DEFAULT
 10
172.8233974182008
 20
18.90471565027533
 30
0.0000000000000284
 11
172.8427334213495
 21
18.83843598089117
 31
0.0000000000000284
  0
LINE
  5
27B
  8
DEFAULT
 10
172.8427334213495
 20
18.83843598089117
 30
0.0000000000000284
 11
172.8597701846786
 21
18.7715284007025
 31
0.0000000000000284
  0
LINE
  5
27C
  8
DEFAULT
 10
172.8597701846786
 20
18.7715284007025
 30
0.0000000000000284
 11
172.8744874051553
 21
18.70407264473703
 31
0.0000000000000284
  0
LINE
  5
27D
  8
DEFAULT
 10
172.8744874051553
 20
18.70407264473703
 30
0.0000000000000284
 11
172.8868675439901
 21
18.63614910129391
 31
0.0000000000000284
  0
LINE
  5
27E
  8
DEFAULT
 10
172.8868675439901
 20
18.63614910129391
 30
0.0000000000000284
 11
172.8968958475373
 21
18.56783871614347
 31
0.0000000000000284
  0
LINE
  5
27F
  8
DEFAULT
 10
172.8968958475373
 20
18.56783871614347
 30
0.0000000000000284
 11
172.9045603648781
 21
18.49922289606261
 31
0.0000000000000284
  0
LINE
  5
280
  8
DEFAULT
 10
172.9045603648781
 20
18.49922289606261
 30
0.0000000000000284
 11
172.9098519620625
 21
18.43038341182083
 31
0.0000000000000284
  0
LINE
  5
281
  8
DEFAULT
 10
172.9098519620625
 20
18.43038341182083
 30
0.0000000000000284
 11
172.9127643329939
 21
18.3614023007324
 31
0.0000000000000284
  0
LINE
  5
282
  8
DEFAULT
 10
172.9127643329939
 20
18.3614023007324
 30
0.0000000000000284
 11
172.913294006945
 21
18.29236176889102
 31
0.0000000000000284
  0
LINE
  5
283
  8
DEFAULT
 10
172.913294006945
 20
18.29236176889102
 30
0.0000000000000284
 11
172.9114403526933
 21
18.22334409320318
 31
0.0000000000000284
  0
LINE
  5
284
  8
DEFAULT
 10
172.9114403526933
 20
18.22334409320318
 30
0.0000000000000284
 11
172.9072055792736
 21
18.1544315233373
 31
0.0000000000000284
  0
LINE
  5
285
  8
DEFAULT
 10
172.9072055792736
 20
18.1544315233373
 30
0.0000000000000284
 11
172.9005947333454
 21
18.08570618370518
 31
0.0000000000000284
  0
LINE
  5
286
  8
DEFAULT
 10
172.9005947333454
 20
18.08570618370518
 30
0.0000000000000284
 11
172.8916156931788
 21
18.01724997559283
 31
0.0000000000000284
  0
LINE
  5
287
  8
DEFAULT
 10
172.8916156931788
 20
18.01724997559283
 30
0.0000000000000284
 11
172.8802791592655
 21
17.94914447955713
 31
0.0000000000000284
  0
LINE
  5
288
  8
DEFAULT
 10
172.8802791592655
 20
17.94914447955713
 30
0.0000000000000284
 11
172.8665986415673
 21
17.88147085820474
 31
0.0000000000000284
  0
LINE
  5
289
  8
DEFAULT
 10
172.8665986415673
 20
17.88147085820474
 30
0.0000000000000284
 11
172.8505904434156
 21
17.81430975946914
 31
0.0000000000000284
  0
LINE
  5
28A
  8
DEFAULT
 10
172.8505904434156
 20
17.81430975946914
 30
0.0000000000000284
 11
172.8322736420828
 21
17.74774122050087
 31
0.0000000000000284
  0
LINE
  5
28B
  8
DEFAULT
 10
172.8322736420828
 20
17.74774122050087
 30
0.0000000000000284
 11
172.811670066047
 21
17.68184457228584
 31
0.0000000000000284
  0
LINE
  5
28C
  8
DEFAULT
 10
172.811670066047
 20
17.68184457228584
 30
0.0000000000000284
 11
172.7888042689793
 21
17.61669834510501
 31
0.0000000000000284
  0
LINE
  5
28D
  8
DEFAULT
 10
172.7888042689793
 20
17.61669834510501
 30
0.0000000000000284
 11
172.7637035004822
 21
17.55238017494846
 31
0.0000000000000284
  0
LINE
  5
28E
  8
DEFAULT
 10
172.7637035004822
 20
17.55238017494846
 30
0.0000000000000284
 11
172.7363976736157
 21
17.48896671099504
 31
0.0000000000000284
  0
LINE
  5
28F
  8
DEFAULT
 10
172.7363976736157
 20
17.48896671099504
 30
0.0000000000000284
 11
172.7069193292498
 21
17.42653352426809
 31
0.0000000000000284
  0
LINE
  5
290
  8
DEFAULT
 10
172.7069193292498
 20
17.42653352426809
 30
0.0000000000000284
 11
172.6753035972845
 21
17.36515501757613
 31
0.0000000000000284
  0
LINE
  5
291
  8
DEFAULT
 10
172.6753035972845
 20
17.36515501757613
 30
0.0000000000000284
 11
172.6415881547851
 21
17.30490433684547
 31
0.0000000000000284
  0
LINE
  5
292
  8
DEFAULT
 10
172.6415881547851
 20
17.30490433684547
 30
0.0000000000000284
 11
172.6058131810816
 21
17.24585328395097
 31
0.0000000000000284
  0
LINE
  5
293
  8
DEFAULT
 10
172.6058131810816
 20
17.24585328395097
 30
0.0000000000000284
 11
172.5680213098862
 21
17.18807223114829
 31
0.0000000000000284
  0
LINE
  5
294
  8
DEFAULT
 10
172.5680213098862
 20
17.18807223114829
 30
0.0000000000000284
 11
172.528257578486
 21
17.13163003721001
 31
0.0000000000000284
  0
LINE
  5
295
  8
DEFAULT
 10
172.528257578486
 20
17.13163003721001
 30
0.0000000000000284
 11
172.4865693740711
 21
17.07659396536526
 31
0.0000000000000284
  0
LINE
  5
296
  8
DEFAULT
 10
172.4865693740711
 20
17.07659396536526
 30
0.0000000000000284
 11
172.4430063772626
 21
17.02302960314093
 31
0.0000000000000284
  0
LINE
  5
297
  8
DEFAULT
 10
172.4430063772626
 20
17.02302960314093
 30
0.0000000000000284
 11
172.397620502907
 21
16.97100078419974
 31
0.0000000000000284
  0
LINE
  5
298
  8
DEFAULT
 10
172.397620502907
 20
16.97100078419974
 30
0.0000000000000284
 11
172.3504658382085
 21
16.92056951226845
 31
0.0000000000000284
  0
LINE
  5
299
  8
DEFAULT
 10
172.3504658382085
 20
16.92056951226845
 30
0.0000000000000284
 11
172.3015985782721
 21
16.87179588724686
 31
0.0000000000000284
  0
LINE
  5
29A
  8
DEFAULT
 10
172.3015985782721
 20
16.87179588724686
 30
0.0000000000000284
 11
172.251076959135
 21
16.82473803358564
 31
0.0000000000000284
  0
LINE
  5
29B
  8
DEFAULT
 10
172.251076959135
 20
16.82473803358564
 30
0.0000000000000284
 11
172.1989611883654
 21
16.77945203101828
 31
0.0000000000000284
  0
LINE
  5
29C
  8
DEFAULT
 10
103.4363670307862
 20
98.72752065440858
 30
0.0000000000000284
 11
100.3721892583103
 21
96.15637021566243
 31
0.0000000000000284
  0
LINE
  5
29D
  8
DEFAULT
 10
100.3721892583103
 20
96.15637021566243
 30
0.0000000000000284
 11
100.3185414432572
 21
96.112910032374
 31
0.0000000000000284
  0
LINE
  5
29E
  8
DEFAULT
 10
100.3185414432572
 20
96.112910032374
 30
0.0000000000000284
 11
100.2634255170356
 21
96.07132746068623
 31
0.0000000000000284
  0
LINE
  5
29F
  8
DEFAULT
 10
100.2634255170356
 20
96.07132746068623
 30
0.0000000000000284
 11
100.2069071623363
 21
96.03167205533562
 31
0.0000000000000284
  0
LINE
  5
2A0
  8
DEFAULT
 10
100.2069071623363
 20
96.03167205533562
 30
0.0000000000000284
 11
100.1490537331507
 21
95.99399107441812
 31
0.0000000000000284
  0
LINE
  5
2A1
  8
DEFAULT
 10
100.1490537331507
 20
95.99399107441812
 30
0.0000000000000284
 11
100.0899341745037
 21
95.95832942307081
 31
0.0000000000000284
  0
LINE
  5
2A2
  8
DEFAULT
 10
100.0899341745037
 20
95.95832942307081
 30
0.0000000000000284
 11
100.0296189402905
 21
95.92472959995749
 31
0.0000000000000284
  0
LINE
  5
2A3
  8
DEFAULT
 10
100.0296189402905
 20
95.92472959995749
 30
0.0000000000000284
 11
99.9681799093156
 21
95.89323164662235
 31
0.0000000000000284
  0
LINE
  5
2A4
  8
DEFAULT
 10
99.9681799093156
 20
95.89323164662235
 30
0.0000000000000284
 11
99.90569029963328
 21
95.86387309977161
 31
0.0000000000000284
  0
LINE
  5
2A5
  8
DEFAULT
 10
99.90569029963328
 20
95.86387309977161
 30
0.0000000000000284
 11
99.84222458129229
 21
95.8366889465404
 31
0.0000000000000284
  0
LINE
  5
2A6
  8
DEFAULT
 10
99.84222458129229
 20
95.8366889465404
 30
0.0000000000000284
 11
99.77785838758855
 21
95.81171158279781
 31
0.0000000000000284
  0
LINE
  5
2A7
  8
DEFAULT
 10
99.77785838758855
 20
95.81171158279781
 30
0.0000000000000284
 11
99.7126684249315
 21
95.78897077454025
 31
0.0000000000000284
  0
LINE
  5
2A8
  8
DEFAULT
 10
99.7126684249315
 20
95.78897077454025
 30
0.0000000000000284
 11
99.64673238143153
 21
95.76849362241866
 31
0.0000000000000284
  0
LINE
  5
2A9
  8
DEFAULT
 10
99.64673238143153
 20
95.76849362241866
 30
0.0000000000000284
 11
99.58012883431782
 21
95.75030452944222
 31
0.0000000000000284
  0
LINE
  5
2AA
  8
DEFAULT
 10
99.58012883431782
 20
95.75030452944222
 30
0.0000000000000284
 11
99.51293715629606
 21
95.73442517189673
 31
0.0000000000000284
  0
LINE
  5
2AB
  8
DEFAULT
 10
99.51293715629606
 20
95.73442517189673
 30
0.0000000000000284
 11
99.44523742095875
 21
95.7208744735127
 31
0.0000000000000284
  0
LINE
  5
2AC
  8
DEFAULT
 10
99.44523742095875
 20
95.7208744735127
 30
0.0000000000000284
 11
99.37711030735989
 21
95.70966858291344
 31
0.0000000000000284
  0
LINE
  5
2AD
  8
DEFAULT
 10
99.37711030735989
 20
95.70966858291344
 30
0.0000000000000284
 11
99.30863700386817
 21
95.70082085437058
 31
0.0000000000000284
  0
LINE
  5
2AE
  8
DEFAULT
 10
99.30863700386817
 20
95.70082085437058
 30
0.0000000000000284
 11
99.2398991114134
 21
95.69434183188939
 31
0.0000000000000284
  0
LINE
  5
2AF
  8
DEFAULT
 10
99.2398991114134
 20
95.69434183188939
 30
0.0000000000000284
 11
99.17097854624099
 21
95.69023923664344
 31
0.0000000000000284
  0
LINE
  5
2B0
  8
DEFAULT
 10
99.17097854624099
 20
95.69023923664344
 30
0.0000000000000284
 11
99.10195744229091
 21
95.68851795777297
 31
0.0000000000000284
  0
LINE
  5
2B1
  8
DEFAULT
 10
99.10195744229091
 20
95.68851795777297
 30
0.0000000000000284
 11
99.0329180533171
 21
95.68918004655858
 31
0.0000000000000284
  0
LINE
  5
2B2
  8
DEFAULT
 10
99.0329180533171
 20
95.68918004655858
 30
0.0000000000000284
 11
98.9639426548641
 21
95.69222471397654
 31
0.0000000000000284
  0
LINE
  5
2B3
  8
DEFAULT
 10
98.9639426548641
 20
95.69222471397654
 30
0.0000000000000284
 11
98.89511344621772
 21
95.69764833163913
 31
0.0000000000000284
  0
LINE
  5
2B4
  8
DEFAULT
 10
98.89511344621772
 20
95.69764833163913
 30
0.0000000000000284
 11
98.82651245244665
 21
95.7054444361187
 31
0.0000000000000284
  0
LINE
  5
2B5
  8
DEFAULT
 10
98.82651245244665
 20
95.7054444361187
 30
0.0000000000000284
 11
98.75822142665156
 21
95.71560373665022
 31
0.0000000000000284
  0
LINE
  5
2B6
  8
DEFAULT
 10
98.75822142665156
 20
95.71560373665022
 30
0.0000000000000284
 11
98.69032175253844
 21
95.72811412620325
 31
0.0000000000000284
  0
LINE
  5
2B7
  8
DEFAULT
 10
98.69032175253844
 20
95.72811412620325
 30
0.0000000000000284
 11
98.6228943474321
 21
95.74296069591016
 31
0.0000000000000284
  0
LINE
  5
2B8
  8
DEFAULT
 10
98.6228943474321
 20
95.74296069591016
 30
0.0000000000000284
 11
98.55601956584542
 21
95.76012575283322
 31
0.0000000000000284
  0
LINE
  5
2B9
  8
DEFAULT
 10
98.55601956584542
 20
95.76012575283322
 30
0.0000000000000284
 11
98.48977710371945
 21
95.77958884104973
 31
0.0000000000000284
  0
LINE
  5
2BA
  8
DEFAULT
 10
98.48977710371945
 20
95.77958884104973
 30
0.0000000000000284
 11
98.42424590344811
 21
95.80132676602967
 31
0.0000000000000284
  0
LINE
  5
2BB
  8
DEFAULT
 10
98.42424590344811
 20
95.80132676602967
 30
0.0000000000000284
 11
98.35950405980115
 21
95.82531362227704
 31
0.0000000000000284
  0
LINE
  5
2BC
  8
DEFAULT
 10
98.35950405980115
 20
95.82531362227704
 30
0.0000000000000284
 11
98.29562872685717
 21
95.85152082420191
 31
0.0000000000000284
  0
LINE
  5
2BD
  8
DEFAULT
 10
98.29562872685717
 20
95.85152082420191
 30
0.0000000000000284
 11
98.23269602605752
 21
95.87991714018654
 31
0.0000000000000284
  0
LINE
  5
2BE
  8
DEFAULT
 10
98.23269602605752
 20
95.87991714018654
 30
0.0000000000000284
 11
98.17078095549105
 21
95.91046872980449
 31
0.0000000000000284
  0
LINE
  5
2BF
  8
DEFAULT
 10
98.17078095549105
 20
95.91046872980449
 30
0.0000000000000284
 11
98.1099573005174
 21
95.9431391841491
 31
0.0000000000000284
  0
LINE
  5
2C0
  8
DEFAULT
 10
98.1099573005174
 20
95.9431391841491
 30
0.0000000000000284
 11
98.05029754583565
 21
95.9778895692225
 31
0.0000000000000284
  0
LINE
  5
2C1
  8
DEFAULT
 10
98.05029754583565
 20
95.9778895692225
 30
0.0000000000000284
 11
97.99187278910289
 21
96.0146784723341
 31
0.0000000000000284
  0
LINE
  5
2C2
  8
DEFAULT
 10
97.99187278910289
 20
96.0146784723341
 30
0.0000000000000284
 11
97.93475265620582
 21
96.05346205145281
 31
0.0000000000000284
  0
LINE
  5
2C3
  8
DEFAULT
 10
97.93475265620582
 20
96.05346205145281
 30
0.0000000000000284
 11
97.87900521828627
 21
96.09419408745448
 31
0.0000000000000284
  0
LINE
  5
2C4
  8
DEFAULT
 10
97.87900521828627
 20
96.09419408745448
 30
0.0000000000000284
 11
97.8246969106195
 21
96.13682603920208
 31
0.0000000000000284
  0
LINE
  5
2C5
  8
DEFAULT
 10
97.8246969106195
 20
96.13682603920208
 30
0.0000000000000284
 11
97.77189245344209
 21
96.18130710139302
 31
0.0000000000000284
  0
LINE
  5
2C6
  8
DEFAULT
 10
97.77189245344209
 20
96.18130710139302
 30
0.0000000000000284
 11
97.72065477482353
 21
96.22758426510492
 31
0.0000000000000284
  0
LINE
  5
2C7
  8
DEFAULT
 10
97.72065477482353
 20
96.22758426510492
 30
0.0000000000000284
 11
97.67104493567372
 21
96.27560238096724
 31
0.0000000000000284
  0
LINE
  5
2C8
  8
DEFAULT
 10
97.67104493567372
 20
96.27560238096724
 30
0.0000000000000284
 11
97.6231220569755
 21
96.32530422488385
 31
0.0000000000000284
  0
LINE
  5
2C9
  8
DEFAULT
 10
97.6231220569755
 20
96.32530422488385
 30
0.0000000000000284
 11
97.57694324932905
 21
96.37663056622812
 31
0.0000000000000284
  0
LINE
  5
2CA
  8
DEFAULT
 10
97.57694324932905
 20
96.37663056622812
 30
0.0000000000000284
 11
97.53256354489213
 21
96.4295202384291
 31
0.0000000000000284
  0
LINE
  5
2CB
  8
DEFAULT
 10
97.53256354489213
 20
96.4295202384291
 30
0.0000000000000284
 11
97.49003583179716
 21
96.48391021186494
 31
0.0000000000000284
  0
LINE
  5
2CC
  8
DEFAULT
 10
97.49003583179716
 20
96.48391021186494
 30
0.0000000000000284
 11
97.44941079112358
 21
96.5397356689764
 31
0.0000000000000284
  0
LINE
  5
2CD
  8
DEFAULT
 10
97.44941079112358
 20
96.5397356689764
 30
0.0000000000000284
 11
97.41073683650005
 21
96.59693008151132
 31
0.0000000000000284
  0
LINE
  5
2CE
  8
DEFAULT
 10
97.41073683650005
 20
96.59693008151132
 30
0.0000000000000284
 11
97.37406005640915
 21
96.65542528980738
 31
0.0000000000000284
  0
LINE
  5
2CF
  8
DEFAULT
 10
97.37406005640915
 20
96.65542528980738
 30
0.0000000000000284
 11
97.33942415926283
 21
96.71515158401945
 31
0.0000000000000284
  0
LINE
  5
2D0
  8
DEFAULT
 10
97.33942415926283
 20
96.71515158401945
 30
0.0000000000000284
 11
97.30687042131427
 21
96.776037787194
 31
0.0000000000000284
  0
LINE
  5
2D1
  8
DEFAULT
 10
97.30687042131427
 20
96.776037787194
 30
0.0000000000000284
 11
97.27643763746816
 21
96.8380113400921
 31
0.0000000000000284
  0
LINE
  5
2D2
  8
DEFAULT
 10
97.27643763746816
 20
96.8380113400921
 30
0.0000000000000284
 11
97.24816207504817
 21
96.90099838765957
 31
0.0000000000000284
  0
LINE
  5
2D3
  8
DEFAULT
 10
97.24816207504817
 20
96.90099838765957
 30
0.0000000000000284
 11
97.22207743057633
 21
96.96492386704155
 31
0.0000000000000284
  0
LINE
  5
2D4
  8
DEFAULT
 10
97.22207743057633
 20
96.96492386704155
 30
0.0000000000000284
 11
97.19821478961643
 21
97.02971159703617
 31
0.0000000000000284
  0
LINE
  5
2D5
  8
DEFAULT
 10
97.19821478961643
 20
97.02971159703617
 30
0.0000000000000284
 11
97.17660258972865
 21
97.09528436888125
 31
0.0000000000000284
  0
LINE
  5
2D6
  8
DEFAULT
 10
97.17660258972865
 20
97.09528436888125
 30
0.0000000000000284
 11
97.15726658658002
 21
97.1615640382654
 31
0.0000000000000284
  0
LINE
  5
2D7
  8
DEFAULT
 10
97.15726658658002
 20
97.1615640382654
 30
0.0000000000000284
 11
97.14022982325089
 21
97.22847161845407
 31
0.0000000000000284
  0
LINE
  5
2D8
  8
DEFAULT
 10
97.14022982325089
 20
97.22847161845407
 30
0.0000000000000284
 11
97.1255126027741
 21
97.29592737441955
 31
0.0000000000000284
  0
LINE
  5
2D9
  8
DEFAULT
 10
97.1255126027741
 20
97.29592737441955
 30
0.0000000000000284
 11
97.11313246393941
 21
97.36385091786266
 31
0.0000000000000284
  0
LINE
  5
2DA
  8
DEFAULT
 10
97.11313246393941
 20
97.36385091786266
 30
0.0000000000000284
 11
97.1031041603922
 21
97.43216130301312
 31
0.0000000000000284
  0
LINE
  5
2DB
  8
DEFAULT
 10
97.1031041603922
 20
97.43216130301312
 30
0.0000000000000284
 11
97.09543964305135
 21
97.50077712309397
 31
0.0000000000000284
  0
LINE
  5
2DC
  8
DEFAULT
 10
97.09543964305135
 20
97.50077712309397
 30
0.0000000000000284
 11
97.09014804586702
 21
97.56961660733575
 31
0.0000000000000284
  0
LINE
  5
2DD
  8
DEFAULT
 10
97.09014804586702
 20
97.56961660733575
 30
0.0000000000000284
 11
97.08723567493556
 21
97.63859771842418
 31
0.0000000000000284
  0
LINE
  5
2DE
  8
DEFAULT
 10
97.08723567493556
 20
97.63859771842418
 30
0.0000000000000284
 11
97.08670600098445
 21
97.70763825026556
 31
0.0000000000000284
  0
LINE
  5
2DF
  8
DEFAULT
 10
97.08670600098445
 20
97.70763825026556
 30
0.0000000000000284
 11
97.08855965523615
 21
97.7766559259534
 31
0.0000000000000284
  0
LINE
  5
2E0
  8
DEFAULT
 10
97.08855965523615
 20
97.7766559259534
 30
0.0000000000000284
 11
97.09279442865585
 21
97.8455684958193
 31
0.0000000000000284
  0
LINE
  5
2E1
  8
DEFAULT
 10
97.09279442865585
 20
97.8455684958193
 30
0.0000000000000284
 11
97.09940527458406
 21
97.9142938354514
 31
0.0000000000000284
  0
LINE
  5
2E2
  8
DEFAULT
 10
97.09940527458406
 20
97.9142938354514
 30
0.0000000000000284
 11
97.10838431475072
 21
97.98275004356375
 31
0.0000000000000284
  0
LINE
  5
2E3
  8
DEFAULT
 10
97.10838431475072
 20
97.98275004356375
 30
0.0000000000000284
 11
97.11972084866402
 21
98.05085553959947
 31
0.0000000000000284
  0
LINE
  5
2E4
  8
DEFAULT
 10
97.11972084866402
 20
98.05085553959947
 30
0.0000000000000284
 11
97.13340136636222
 21
98.11852916095184
 31
0.0000000000000284
  0
LINE
  5
2E5
  8
DEFAULT
 10
97.13340136636222
 20
98.11852916095184
 30
0.0000000000000284
 11
97.14940956451387
 21
98.18569025968745
 31
0.0000000000000284
  0
LINE
  5
2E6
  8
DEFAULT
 10
97.14940956451387
 20
98.18569025968745
 30
0.0000000000000284
 11
97.16772636584672
 21
98.25225879865572
 31
0.0000000000000284
  0
LINE
  5
2E7
  8
DEFAULT
 10
97.16772636584672
 20
98.25225879865572
 30
0.0000000000000284
 11
97.18832994188246
 21
98.31815544687076
 31
0.0000000000000284
  0
LINE
  5
2E8
  8
DEFAULT
 10
97.18832994188246
 20
98.31815544687076
 30
0.0000000000000284
 11
97.21119573895014
 21
98.38330167405157
 31
0.0000000000000284
  0
LINE
  5
2E9
  8
DEFAULT
 10
97.21119573895014
 20
98.38330167405157
 30
0.0000000000000284
 11
97.23629650744734
 21
98.44761984420812
 31
0.0000000000000284
  0
LINE
  5
2EA
  8
DEFAULT
 10
97.23629650744734
 20
98.44761984420812
 30
0.0000000000000284
 11
97.26360233431384
 21
98.51103330816154
 31
0.0000000000000284
  0
LINE
  5
2EB
  8
DEFAULT
 10
97.26360233431384
 20
98.51103330816154
 30
0.0000000000000284
 11
97.29308067867974
 21
98.57346649488849
 31
0.0000000000000284
  0
LINE
  5
2EC
  8
DEFAULT
 10
97.29308067867974
 20
98.57346649488849
 30
0.0000000000000284
 11
97.32469641064503
 21
98.63484500158046
 31
0.0000000000000284
  0
LINE
  5
2ED
  8
DEFAULT
 10
97.32469641064503
 20
98.63484500158046
 30
0.0000000000000284
 11
97.35841185314442
 21
98.6950956823111
 31
0.0000000000000284
  0
LINE
  5
2EE
  8
DEFAULT
 10
97.35841185314442
 20
98.6950956823111
 30
0.0000000000000284
 11
97.39418682684794
 21
98.75414673520561
 31
0.0000000000000284
  0
LINE
  5
2EF
  8
DEFAULT
 10
97.39418682684794
 20
98.75414673520561
 30
0.0000000000000284
 11
97.43197869804335
 21
98.81192778800829
 31
0.0000000000000284
  0
LINE
  5
2F0
  8
DEFAULT
 10
97.43197869804335
 20
98.81192778800829
 30
0.0000000000000284
 11
97.47174242944357
 21
98.86836998194659
 31
0.0000000000000284
  0
LINE
  5
2F1
  8
DEFAULT
 10
97.47174242944357
 20
98.86836998194659
 30
0.0000000000000284
 11
97.51343063385843
 21
98.92340605379133
 31
0.0000000000000284
  0
LINE
  5
2F2
  8
DEFAULT
 10
97.51343063385843
 20
98.92340605379133
 30
0.0000000000000284
 11
97.55699363066694
 21
98.97697041601566
 31
0.0000000000000284
  0
LINE
  5
2F3
  8
DEFAULT
 10
97.55699363066694
 20
98.97697041601566
 30
0.0000000000000284
 11
97.60237950502253
 21
99.02899923495684
 31
0.0000000000000284
  0
LINE
  5
2F4
  8
DEFAULT
 10
97.60237950502253
 20
99.02899923495684
 30
0.0000000000000284
 11
97.64953416972104
 21
99.07943050688813
 31
0.0000000000000284
  0
LINE
  5
2F5
  8
DEFAULT
 10
97.64953416972104
 20
99.07943050688813
 30
0.0000000000000284
 11
97.69840142965742
 21
99.12820413190971
 31
0.0000000000000284
  0
LINE
  5
2F6
  8
DEFAULT
 10
97.69840142965742
 20
99.12820413190971
 30
0.0000000000000284
 11
97.74892304879454
 21
99.17526198557093
 31
0.0000000000000284
  0
LINE
  5
2F7
  8
DEFAULT
 10
97.74892304879454
 20
99.17526198557093
 30
0.0000000000000284
 11
97.8010388195641
 21
99.22054798813829
 31
0.0000000000000284
  0
LINE
  5
2F8
  8
DEFAULT
 10
97.8010388195641
 20
99.22054798813829
 30
0.0000000000000284
 11
100.86521659204
 21
101.7916984268845
 31
0.0000000000000284
  0
LINE
  5
2F9
  8
DEFAULT
 10
100.86521659204
 20
101.7916984268845
 30
0.0000000000000284
 11
100.9188644070932
 21
101.8351586101729
 31
0.0000000000000284
  0
LINE
  5
2FA
  8
DEFAULT
 10
100.9188644070932
 20
101.8351586101729
 30
0.0000000000000284
 11
100.9739803333148
 21
101.8767411818607
 31
0.0000000000000284
  0
LINE
  5
2FB
  8
DEFAULT
 10
100.9739803333148
 20
101.8767411818607
 30
0.0000000000000284
 11
101.0304986880141
 21
101.9163965872113
 31
0.0000000000000284
  0
LINE
  5
2FC
  8
DEFAULT
 10
101.0304986880141
 20
101.9163965872113
 30
0.0000000000000284
 11
101.0883521171997
 21
101.9540775681288
 31
0.0000000000000284
  0
LINE
  5
2FD
  8
DEFAULT
 10
101.0883521171997
 20
101.9540775681288
 30
0.0000000000000284
 11
101.1474716758467
 21
101.9897392194761
 31
0.0000000000000284
  0
LINE
  5
2FE
  8
DEFAULT
 10
101.1474716758467
 20
101.9897392194761
 30
0.0000000000000284
 11
101.2077869100599
 21
102.0233390425894
 31
0.0000000000000284
  0
LINE
  5
2FF
  8
DEFAULT
 10
101.2077869100599
 20
102.0233390425894
 30
0.0000000000000284
 11
101.2692259410347
 21
102.0548369959245
 31
0.0000000000000284
  0
LINE
  5
300
  8
DEFAULT
 10
101.2692259410347
 20
102.0548369959245
 30
0.0000000000000284
 11
101.3317155507171
 21
102.0841955427753
 31
0.0000000000000284
  0
LINE
  5
301
  8
DEFAULT
 10
101.3317155507171
 20
102.0841955427753
 30
0.0000000000000284
 11
101.3951812690581
 21
102.1113796960065
 31
0.0000000000000284
  0
LINE
  5
302
  8
DEFAULT
 10
101.3951812690581
 20
102.1113796960065
 30
0.0000000000000284
 11
101.4595474627618
 21
102.1363570597491
 31
0.0000000000000284
  0
LINE
  5
303
  8
DEFAULT
 10
101.4595474627618
 20
102.1363570597491
 30
0.0000000000000284
 11
101.5247374254189
 21
102.1590978680066
 31
0.0000000000000284
  0
LINE
  5
304
  8
DEFAULT
 10
101.5247374254189
 20
102.1590978680066
 30
0.0000000000000284
 11
101.5906734689188
 21
102.1795750201282
 31
0.0000000000000284
  0
LINE
  5
305
  8
DEFAULT
 10
101.5906734689188
 20
102.1795750201282
 30
0.0000000000000284
 11
101.6572770160325
 21
102.1977641131047
 31
0.0000000000000284
  0
LINE
  5
306
  8
DEFAULT
 10
101.6572770160325
 20
102.1977641131047
 30
0.0000000000000284
 11
101.7244686940543
 21
102.2136434706501
 31
0.0000000000000284
  0
LINE
  5
307
  8
DEFAULT
 10
101.7244686940543
 20
102.2136434706501
 30
0.0000000000000284
 11
101.7921684293916
 21
102.2271941690342
 31
0.0000000000000284
  0
LINE
  5
308
  8
DEFAULT
 10
101.7921684293916
 20
102.2271941690342
 30
0.0000000000000284
 11
101.8602955429904
 21
102.2384000596334
 31
0.0000000000000284
  0
LINE
  5
309
  8
DEFAULT
 10
101.8602955429904
 20
102.2384000596334
 30
0.0000000000000284
 11
101.9287688464822
 21
102.2472477881763
 31
0.0000000000000284
  0
LINE
  5
30A
  8
DEFAULT
 10
101.9287688464822
 20
102.2472477881763
 30
0.0000000000000284
 11
101.9975067389369
 21
102.2537268106575
 31
0.0000000000000284
  0
LINE
  5
30B
  8
DEFAULT
 10
101.9975067389369
 20
102.2537268106575
 30
0.0000000000000284
 11
102.0664273041094
 21
102.2578294059034
 31
0.0000000000000284
  0
LINE
  5
30C
  8
DEFAULT
 10
102.0664273041094
 20
102.2578294059034
 30
0.0000000000000284
 11
102.1354484080594
 21
102.2595506847739
 31
0.0000000000000284
  0
LINE
  5
30D
  8
DEFAULT
 10
102.1354484080594
 20
102.2595506847739
 30
0.0000000000000284
 11
102.2044877970332
 21
102.2588885959883
 31
0.0000000000000284
  0
LINE
  5
30E
  8
DEFAULT
 10
102.2044877970332
 20
102.2588885959883
 30
0.0000000000000284
 11
102.2734631954862
 21
102.2558439285703
 31
0.0000000000000284
  0
LINE
  5
30F
  8
DEFAULT
 10
102.2734631954862
 20
102.2558439285703
 30
0.0000000000000284
 11
102.3422924041326
 21
102.2504203109077
 31
0.0000000000000284
  0
LINE
  5
310
  8
DEFAULT
 10
102.3422924041326
 20
102.2504203109077
 30
0.0000000000000284
 11
102.4108933979037
 21
102.2426242064282
 31
0.0000000000000284
  0
LINE
  5
311
  8
DEFAULT
 10
102.4108933979037
 20
102.2426242064282
 30
0.0000000000000284
 11
102.4791844236988
 21
102.2324649058966
 31
0.0000000000000284
  0
LINE
  5
312
  8
DEFAULT
 10
102.4791844236988
 20
102.2324649058966
 30
0.0000000000000284
 11
102.5470840978119
 21
102.2199545163436
 31
0.0000000000000284
  0
LINE
  5
313
  8
DEFAULT
 10
102.5470840978119
 20
102.2199545163436
 30
0.0000000000000284
 11
102.6145115029182
 21
102.2051079466367
 31
0.0000000000000284
  0
LINE
  5
314
  8
DEFAULT
 10
102.6145115029182
 20
102.2051079466367
 30
0.0000000000000284
 11
102.6813862845049
 21
102.1879428897136
 31
0.0000000000000284
  0
LINE
  5
315
  8
DEFAULT
 10
102.6813862845049
 20
102.1879428897136
 30
0.0000000000000284
 11
102.7476287466309
 21
102.1684798014971
 31
0.0000000000000284
  0
LINE
  5
316
  8
DEFAULT
 10
102.7476287466309
 20
102.1684798014971
 30
0.0000000000000284
 11
102.8131599469022
 21
102.1467418765172
 31
0.0000000000000284
  0
LINE
  5
317
  8
DEFAULT
 10
102.8131599469022
 20
102.1467418765172
 30
0.0000000000000284
 11
102.8779017905492
 21
102.1227550202698
 31
0.0000000000000284
  0
LINE
  5
318
  8
DEFAULT
 10
102.8779017905492
 20
102.1227550202698
 30
0.0000000000000284
 11
102.9417771234931
 21
102.0965478183449
 31
0.0000000000000284
  0
LINE
  5
319
  8
DEFAULT
 10
102.9417771234931
 20
102.0965478183449
 30
0.0000000000000284
 11
103.0047098242928
 21
102.0681515023603
 31
0.0000000000000284
  0
LINE
  5
31A
  8
DEFAULT
 10
103.0047098242928
 20
102.0681515023603
 30
0.0000000000000284
 11
103.0666248948593
 21
102.0375999127424
 31
0.0000000000000284
  0
LINE
  5
31B
  8
DEFAULT
 10
103.0666248948593
 20
102.0375999127424
 30
0.0000000000000284
 11
103.1274485498329
 21
102.0049294583978
 31
0.0000000000000284
  0
LINE
  5
31C
  8
DEFAULT
 10
103.1274485498329
 20
102.0049294583978
 30
0.0000000000000284
 11
103.1871083045147
 21
101.9701790733243
 31
0.0000000000000284
  0
LINE
  5
31D
  8
DEFAULT
 10
103.1871083045147
 20
101.9701790733243
 30
0.0000000000000284
 11
103.2455330612474
 21
101.9333901702128
 31
0.0000000000000284
  0
LINE
  5
31E
  8
DEFAULT
 10
103.2455330612474
 20
101.9333901702128
 30
0.0000000000000284
 11
103.3026531941445
 21
101.894606591094
 31
0.0000000000000284
  0
LINE
  5
31F
  8
DEFAULT
 10
103.3026531941445
 20
101.894606591094
 30
0.0000000000000284
 11
103.358400632064
 21
101.8538745550924
 31
0.0000000000000284
  0
LINE
  5
320
  8
DEFAULT
 10
103.358400632064
 20
101.8538745550924
 30
0.0000000000000284
 11
103.4127089397308
 21
101.8112426033448
 31
0.0000000000000284
  0
LINE
  5
321
  8
DEFAULT
 10
103.4127089397308
 20
101.8112426033448
 30
0.0000000000000284
 11
103.4655133969082
 21
101.7667615411538
 31
0.0000000000000284
  0
LINE
  5
322
  8
DEFAULT
 10
103.4655133969082
 20
101.7667615411538
 30
0.0000000000000284
 11
103.5167510755268
 21
101.7204843774419
 31
0.0000000000000284
  0
LINE
  5
323
  8
DEFAULT
 10
103.5167510755268
 20
101.7204843774419
 30
0.0000000000000284
 11
103.5663609146766
 21
101.6724662615796
 31
0.0000000000000284
  0
LINE
  5
324
  8
DEFAULT
 10
103.5663609146766
 20
101.6724662615796
 30
0.0000000000000284
 11
103.6142837933748
 21
101.622764417663
 31
0.0000000000000284
  0
LINE
  5
325
  8
DEFAULT
 10
103.6142837933748
 20
101.622764417663
 30
0.0000000000000284
 11
103.6604626010213
 21
101.5714380763187
 31
0.0000000000000284
  0
LINE
  5
326
  8
DEFAULT
 10
103.6604626010213
 20
101.5714380763187
 30
0.0000000000000284
 11
103.7048423054582
 21
101.5185484041178
 31
0.0000000000000284
  0
LINE
  5
327
  8
DEFAULT
 10
103.7048423054582
 20
101.5185484041178
 30
0.0000000000000284
 11
103.7473700185531
 21
101.4641584306819
 31
0.0000000000000284
  0
LINE
  5
328
  8
DEFAULT
 10
103.7473700185531
 20
101.4641584306819
 30
0.0000000000000284
 11
103.7879950592267
 21
101.4083329735705
 31
0.0000000000000284
  0
LINE
  5
329
  8
DEFAULT
 10
103.7879950592267
 20
101.4083329735705
 30
0.0000000000000284
 11
103.8266690138502
 21
101.3511385610355
 31
0.0000000000000284
  0
LINE
  5
32A
  8
DEFAULT
 10
103.8266690138502
 20
101.3511385610355
 30
0.0000000000000284
 11
103.8633457939411
 21
101.2926433527395
 31
0.0000000000000284
  0
LINE
  5
32B
  8
DEFAULT
 10
103.8633457939411
 20
101.2926433527395
 30
0.0000000000000284
 11
103.8979816910875
 21
101.2329170585274
 31
0.0000000000000284
  0
LINE
  5
32C
  8
DEFAULT
 10
103.8979816910875
 20
101.2329170585274
 30
0.0000000000000284
 11
103.930535429036
 21
101.1720308553529
 31
0.0000000000000284
  0
LINE
  5
32D
  8
DEFAULT
 10
103.930535429036
 20
101.1720308553529
 30
0.0000000000000284
 11
103.9609682128821
 21
101.1100573024548
 31
0.0000000000000284
  0
LINE
  5
32E
  8
DEFAULT
 10
103.9609682128821
 20
101.1100573024548
 30
0.0000000000000284
 11
103.9892437753021
 21
101.0470702548873
 31
0.0000000000000284
  0
LINE
  5
32F
  8
DEFAULT
 10
103.9892437753021
 20
101.0470702548873
 30
0.0000000000000284
 11
104.015328419774
 21
100.9831447755053
 31
0.0000000000000284
  0
LINE
  5
330
  8
DEFAULT
 10
104.015328419774
 20
100.9831447755053
 30
0.0000000000000284
 11
104.0391910607339
 21
100.9183570455107
 31
0.0000000000000284
  0
LINE
  5
331
  8
DEFAULT
 10
104.0391910607339
 20
100.9183570455107
 30
0.0000000000000284
 11
104.0608032606216
 21
100.8527842736656
 31
0.0000000000000284
  0
LINE
  5
332
  8
DEFAULT
 10
104.0608032606216
 20
100.8527842736656
 30
0.0000000000000284
 11
104.0801392637703
 21
100.7865046042815
 31
0.0000000000000284
  0
LINE
  5
333
  8
DEFAULT
 10
104.0801392637703
 20
100.7865046042815
 30
0.0000000000000284
 11
104.0971760270994
 21
100.7195970240928
 31
0.0000000000000284
  0
LINE
  5
334
  8
DEFAULT
 10
104.0971760270994
 20
100.7195970240928
 30
0.0000000000000284
 11
104.1118932475762
 21
100.6521412681273
 31
0.0000000000000284
  0
LINE
  5
335
  8
DEFAULT
 10
104.1118932475762
 20
100.6521412681273
 30
0.0000000000000284
 11
104.1242733864109
 21
100.5842177246842
 31
0.0000000000000284
  0
LINE
  5
336
  8
DEFAULT
 10
104.1242733864109
 20
100.5842177246842
 30
0.0000000000000284
 11
104.1343016899581
 21
100.5159073395338
 31
0.0000000000000284
  0
LINE
  5
337
  8
DEFAULT
 10
104.1343016899581
 20
100.5159073395338
 30
0.0000000000000284
 11
104.1419662072989
 21
100.4472915194529
 31
0.0000000000000284
  0
LINE
  5
338
  8
DEFAULT
 10
104.1419662072989
 20
100.4472915194529
 30
0.0000000000000284
 11
104.1472578044833
 21
100.3784520352111
 31
0.0000000000000284
  0
LINE
  5
339
  8
DEFAULT
 10
104.1472578044833
 20
100.3784520352111
 30
0.0000000000000284
 11
104.1501701754147
 21
100.3094709241227
 31
0.0000000000000284
  0
LINE
  5
33A
  8
DEFAULT
 10
104.1501701754147
 20
100.3094709241227
 30
0.0000000000000284
 11
104.1506998493658
 21
100.2404303922813
 31
0.0000000000000284
  0
LINE
  5
33B
  8
DEFAULT
 10
104.1506998493658
 20
100.2404303922813
 30
0.0000000000000284
 11
104.1488461951141
 21
100.1714127165935
 31
0.0000000000000284
  0
LINE
  5
33C
  8
DEFAULT
 10
104.1488461951141
 20
100.1714127165935
 30
0.0000000000000284
 11
104.1446114216944
 21
100.1025001467276
 31
0.0000000000000284
  0
LINE
  5
33D
  8
DEFAULT
 10
104.1446114216944
 20
100.1025001467276
 30
0.0000000000000284
 11
104.1380005757662
 21
100.0337748070955
 31
0.0000000000000284
  0
LINE
  5
33E
  8
DEFAULT
 10
104.1380005757662
 20
100.0337748070955
 30
0.0000000000000284
 11
104.1290215355996
 21
99.96531859898312
 31
0.0000000000000284
  0
LINE
  5
33F
  8
DEFAULT
 10
104.1290215355996
 20
99.96531859898312
 30
0.0000000000000284
 11
104.1176850016863
 21
99.89721310294742
 31
0.0000000000000284
  0
LINE
  5
340
  8
DEFAULT
 10
104.1176850016863
 20
99.89721310294742
 30
0.0000000000000284
 11
104.104004483988
 21
99.82953948159505
 31
0.0000000000000284
  0
LINE
  5
341
  8
DEFAULT
 10
104.104004483988
 20
99.82953948159505
 30
0.0000000000000284
 11
104.0879962858364
 21
99.76237838285944
 31
0.0000000000000284
  0
LINE
  5
342
  8
DEFAULT
 10
104.0879962858364
 20
99.76237838285944
 30
0.0000000000000284
 11
104.0696794845036
 21
99.69580984389118
 31
0.0000000000000284
  0
LINE
  5
343
  8
DEFAULT
 10
104.0696794845036
 20
99.69580984389118
 30
0.0000000000000284
 11
104.0490759084678
 21
99.62991319567614
 31
0.0000000000000284
  0
LINE
  5
344
  8
DEFAULT
 10
104.0490759084678
 20
99.62991319567614
 30
0.0000000000000284
 11
104.0262101114001
 21
99.5647669684953
 31
0.0000000000000284
  0
LINE
  5
345
  8
DEFAULT
 10
104.0262101114001
 20
99.5647669684953
 30
0.0000000000000284
 11
104.0011093429029
 21
99.50044879833877
 31
0.0000000000000284
  0
LINE
  5
346
  8
DEFAULT
 10
104.0011093429029
 20
99.50044879833877
 30
0.0000000000000284
 11
103.9738035160365
 21
99.43703533438533
 31
0.0000000000000284
  0
LINE
  5
347
  8
DEFAULT
 10
103.9738035160365
 20
99.43703533438533
 30
0.0000000000000284
 11
103.9443251716705
 21
99.3746021476584
 31
0.0000000000000284
  0
LINE
  5
348
  8
DEFAULT
 10
103.9443251716705
 20
99.3746021476584
 30
0.0000000000000284
 11
103.9127094397053
 21
99.31322364096643
 31
0.0000000000000284
  0
LINE
  5
349
  8
DEFAULT
 10
103.9127094397053
 20
99.31322364096643
 30
0.0000000000000284
 11
103.8789939972059
 21
99.25297296023578
 31
0.0000000000000284
  0
LINE
  5
34A
  8
DEFAULT
 10
103.8789939972059
 20
99.25297296023578
 30
0.0000000000000284
 11
103.8432190235024
 21
99.19392190734128
 31
0.0000000000000284
  0
LINE
  5
34B
  8
DEFAULT
 10
103.8432190235024
 20
99.19392190734128
 30
0.0000000000000284
 11
103.8054271523069
 21
99.13614085453861
 31
0.0000000000000284
  0
LINE
  5
34C
  8
DEFAULT
 10
103.8054271523069
 20
99.13614085453861
 30
0.0000000000000284
 11
103.7656634209067
 21
99.07969866060031
 31
0.0000000000000284
  0
LINE
  5
34D
  8
DEFAULT
 10
103.7656634209067
 20
99.07969866060031
 30
0.0000000000000284
 11
103.7239752164918
 21
99.02466258875556
 31
0.0000000000000284
  0
LINE
  5
34E
  8
DEFAULT
 10
103.7239752164918
 20
99.02466258875556
 30
0.0000000000000284
 11
103.6804122196833
 21
98.97109822653124
 31
0.0000000000000284
  0
LINE
  5
34F
  8
DEFAULT
 10
103.6804122196833
 20
98.97109822653124
 30
0.0000000000000284
 11
103.6350263453278
 21
98.91906940759004
 31
0.0000000000000284
  0
LINE
  5
350
  8
DEFAULT
 10
103.6350263453278
 20
98.91906940759004
 30
0.0000000000000284
 11
103.5878716806292
 21
98.86863813565877
 31
0.0000000000000284
  0
LINE
  5
351
  8
DEFAULT
 10
103.5878716806292
 20
98.86863813565877
 30
0.0000000000000284
 11
103.5390044206929
 21
98.81986451063719
 31
0.0000000000000284
  0
LINE
  5
352
  8
DEFAULT
 10
103.5390044206929
 20
98.81986451063719
 30
0.0000000000000284
 11
103.4884828015557
 21
98.77280665697597
 31
0.0000000000000284
  0
LINE
  5
353
  8
DEFAULT
 10
103.4884828015557
 20
98.77280665697597
 30
0.0000000000000284
 11
103.4363670307862
 21
98.72752065440861
 31
0.0000000000000284
  0
ARC
  5
354
  8
DEFAULT
 10
135.0000000039648
 20
58.00000000957829
 30
0.0000000000000284
 40
65.98780306383836
 50
310.0000000000001
 51
130.0
  0
ARC
  5
355
  8
DEFAULT
 10
156.3560206153913
 20
33.46276330925821
 30
0.0000000000000284
 40
33.46895931664503
 50
272.3756718886847
 51
308.9943236272382
  0
ARC
  5
356
  8
DEFAULT
 10
124.2573747407208
 20
71.10656314819789
 30
0.0000000000001421
 40
49.04275608583868
 50
130.2282922986186
 51
157.1624084731683
  0
ARC
  5
357
  8
DEFAULT
 10
92.23395556084563
 20
62.35721239989164
 30
0.0
 40
41.0
 50
310.8733186444342
 51
311.3975966282469
  0
ARC
  5
358
  8
DEFAULT
 10
93.0
 20
63.0
 30
0.0000000000004547
 40
26.0
 50
138.4714305559756
 51
301.5285694280597
  0
LINE
  5
359
  8
DEFAULT
 10
31.49999999999994
 20
4.618013907066597
 30
0.0000000000003411
 11
31.49999999999994
 21
12.0180138981259
 31
0.0000000000003411
  0
LINE
  5
35A
  8
DEFAULT
 10
31.49999999999994
 20
12.0180138981259
 30
0.0000000000003411
 11
38.49999999999994
 21
12.0180138981259
 31
0.0000000000003411
  0
LINE
  5
35B
  8
DEFAULT
 10
38.49999999999994
 20
12.0180138981259
 30
0.0000000000003411
 11
38.49999999999994
 21
4.618013907066597
 31
0.0000000000003411
  0
LINE
  5
35C
  8
DEFAULT
 10
38.49999999999994
 20
4.618013907066597
 30
0.0000000000003411
 11
31.49999999999994
 21
4.618013907066597
 31
0.0000000000003411
  0
LINE
  5
35D
  8
DEFAULT
 10
11.5
 20
4.618013907066597
 30
0.0000000000003411
 11
11.5
 21
12.0180138981259
 31
0.0000000000003411
  0
LINE
  5
35E
  8
DEFAULT
 10
11.5
 20
12.0180138981259
 30
0.0000000000003411
 11
18.5
 21
12.0180138981259
 31
0.0000000000003411
  0
LINE
  5
35F
  8
DEFAULT
 10
18.5
 20
12.0180138981259
 30
0.0000000000003411
 11
18.5
 21
4.618013907066597
 31
0.0000000000003411
  0
LINE
  5
360
  8
DEFAULT
 10
18.5
 20
4.618013907066597
 30
0.0000000000003411
 11
11.5
 21
4.618013907066597
 31
0.0000000000003411
  0
LINE
  5
361
  8
DEFAULT
 10
11.5
 20
25.80000000447012
 30
0.0000000000003411
 11
11.5
 21
33.19999999552942
 31
0.0000000000003411
  0
LINE
  5
362
  8
DEFAULT
 10
11.5
 20
33.19999999552942
 30
0.0000000000003411
 11
18.5
 21
33.19999999552942
 31
0.0000000000003411
  0
LINE
  5
363
  8
DEFAULT
 10
18.5
 20
33.19999999552942
 30
0.0000000000003411
 11
18.5
 21
25.80000000447012
 31
0.0000000000003411
  0
LINE
  5
364
  8
DEFAULT
 10
18.5
 20
25.80000000447012
 30
0.0000000000003411
 11
11.5
 21
25.80000000447012
 31
0.0000000000003411
  0
LINE
  5
365
  8
DEFAULT
 10
31.5
 20
25.80000000447012
 30
0.0000000000003411
 11
31.5
 21
33.19999999552942
 31
0.0000000000003411
  0
LINE
  5
366
  8
DEFAULT
 10
31.5
 20
33.19999999552942
 30
0.0000000000003411
 11
38.5
 21
33.19999999552942
 31
0.0000000000003411
  0
LINE
  5
367
  8
DEFAULT
 10
38.5
 20
33.19999999552942
 30
0.0000000000003411
 11
38.5
 21
25.80000000447012
 31
0.0000000000003411
  0
LINE
  5
368
  8
DEFAULT
 10
38.5
 20
25.80000000447012
 30
0.0000000000003411
 11
31.5
 21
25.80000000447012
 31
0.0000000000003411
  0
CIRCLE
  5
369
  8
DEFAULT
 10
15.0
 20
22.0
 30
0.0000000000002274
 40
2.5
  0
CIRCLE
  5
36A
  8
DEFAULT
 10
58.61870292517517
 20
103.9740343212735
 30
0.0000000000003411
 40
2.0
  0
CIRCLE
  5
36B
  8
DEFAULT
 10
35.00000000000006
 20
22.0
 30
0.0000000000003411
 40
2.5
  0
CIRCLE
  5
36C
  8
DEFAULT
 10
35.00000000000006
 20
37.06818181818221
 30
0.0000000000003411
 40
2.5
  0
CIRCLE
  5
36D
  8
DEFAULT
 10
127.3812970827544
 20
22.02596569788318
 30
0.0000000000002274
 40
2.0
  0
CIRCLE
  5
36E
  8
DEFAULT
 10
15.0
 20
37.06818181818221
 30
0.0000000000002274
 40
2.5
  0
LINE
  5
36F
  8
DEFAULT
 10
147.7999999970198
 20
26.30000000447035
 30
0.0000000000003411
 11
106.5960149573891
 21
40.83813236032552
 31
0.0000000000004547
  0
LINE
  5
370
  8
DEFAULT
 10
68.0
 20
124.0
 30
0.0000000000003411
 11
73.53574415290433
 21
80.2378288748555
 31
0.0000000000004547
  0
LINE
  5
371
  8
DEFAULT
 10
147.7999999970198
 20
26.30000000447035
 30
0.0000000000003411
 11
146.4663506921529
 21
24.38999830714896
 31
0.0000000000003411
  0
LINE
  5
372
  8
DEFAULT
 10
146.4663506921529
 20
24.38999830714896
 30
0.0000000000003411
 11
145.0679928752516
 21
22.52684979775595
 31
0.0000000000003411
  0
LINE
  5
373
  8
DEFAULT
 10
145.0679928752516
 20
22.52684979775595
 30
0.0000000000003411
 11
143.6065711650402
 21
20.71274573870496
 31
0.0000000000003411
  0
LINE
  5
374
  8
DEFAULT
 10
143.6065711650402
 20
20.71274573870496
 30
0.0000000000003411
 11
142.0838043501435
 21
18.94981971087746
 31
0.0000000000003411
  0
LINE
  5
375
  8
DEFAULT
 10
142.0838043501435
 20
18.94981971087746
 30
0.0000000000003411
 11
140.5014833676065
 21
17.24014510430292
 31
0.0000000000003411
  0
LINE
  5
376
  8
DEFAULT
 10
140.5014833676065
 20
17.24014510430292
 30
0.0000000000003411
 11
138.8614691965612
 21
15.58573267962976
 31
0.0000000000003411
  0
LINE
  5
377
  8
DEFAULT
 10
138.8614691965612
 20
15.58573267962976
 30
0.0000000000003411
 11
137.1656906695147
 21
13.98852820325533
 31
0.0000000000003411
  0
LINE
  5
378
  8
DEFAULT
 10
137.1656906695147
 20
13.98852820325533
 30
0.0000000000003411
 11
135.4161422038361
 21
12.45041015889592
 31
0.0000000000003411
  0
LINE
  5
379
  8
DEFAULT
 10
135.4161422038361
 20
12.45041015889592
 30
0.0000000000003411
 11
120.5783211677004
 21
0.0
 31
0.0000000000003411
  0
LINE
  5
37A
  8
DEFAULT
 10
120.5783211677004
 20
0.0
 30
0.0000000000003411
 11
0.0
 21
0.0
 31
0.0000000000003411
  0
LINE
  5
37B
  8
DEFAULT
 10
0.0
 20
0.0
 30
0.0000000000003411
 11
0.0
 21
66.90919527743546
 31
0.0000000000003411
  0
LINE
  5
37C
  8
DEFAULT
 10
0.0
 20
66.90919527743546
 30
0.0000000000003411
 11
50.5838578040935
 21
113.5495898602607
 31
0.0000000000003411
  0
LINE
  5
37D
  8
DEFAULT
 10
50.5838578040935
 20
113.5495898602607
 30
0.0000000000003411
 11
58.23271728605685
 21
119.1223987570916
 31
0.0000000000003411
  0
LINE
  5
37E
  8
DEFAULT
 10
58.23271728605685
 20
119.1223987570916
 30
0.0000000000003411
 11
61.43713105015642
 21
120.8497611835523
 31
0.0000000000003411
  0
LINE
  5
37F
  8
DEFAULT
 10
61.43713105015642
 20
120.8497611835523
 30
0.0000000000003411
 11
64.69395205141124
 21
122.4761576572588
 31
0.0000000000003411
  0
LINE
  5
380
  8
DEFAULT
 10
64.69395205141124
 20
122.4761576572588
 30
0.0000000000003411
 11
68.0
 21
124.0
 31
0.0000000000003411
  0
ENDSEC
  0
EOF
