  0
SECTION
  2
HEADER
  9
$ACADVER
  1
AC1009
  9
$DWGCODEPAGE
  3
ansi_1252
  9
$INSBASE
 10
0.0
 20
0.0
 30
0.0
  9
$EXTMIN
 10
-0.0000031288010014
 20
-0.0000003311460013
 30
-0.000000000003638
  9
$EXTMAX
 10
363.704071044922
 20
292.0
 30
0.0000000000000284
  9
$LIMMIN
 10
0.0
 20
0.0
  9
$LIMMAX
 10
12.0
 20
9.0
  9
$ORTHOMODE
 70
     0
  9
$REGENMODE
 70
     1
  9
$FILLMODE
 70
     1
  9
$QTEXTMODE
 70
     0
  9
$MIRRTEXT
 70
     1
  9
$DRAGMODE
 70
     2
  9
$LTSCALE
 40
1.0
  9
$OSMODE
 70
    37
  9
$ATTMODE
 70
     1
  9
$TEXTSIZE
 40
0.2
  9
$TRACEWID
 40
0.05
  9
$TEXTSTYLE
  7
STANDARD
  9
$CLAYER
  8
DEFAULT
  9
$CELTYPE
  6
BYLAYER
  9
$CECOLOR
 62
   256
  9
$DIMSCALE
 40
1.0
  9
$DIMASZ
 40
0.18
  9
$DIMEXO
 40
0.0625
  9
$DIMDLI
 40
0.38
  9
$DIMRND
 40
0.0
  9
$DIMDLE
 40
0.0
  9
$DIMEXE
 40
0.18
  9
$DIMTP
 40
0.0
  9
$DIMTM
 40
0.0
  9
$DIMTXT
 40
0.18
  9
$DIMCEN
 40
0.09
  9
$DIMTSZ
 40
0.0
  9
$DIMTOL
 70
     0
  9
$DIMLIM
 70
     0
  9
$DIMTIH
 70
     1
  9
$DIMTOH
 70
     1
  9
$DIMSE1
 70
     0
  9
$DIMSE2
 70
     0
  9
$DIMTAD
 70
     0
  9
$DIMZIN
 70
     0
  9
$DIMBLK
  1

  9
$DIMASO
 70
     1
  9
$DIMSHO
 70
     1
  9
$DIMPOST
  1

  9
$DIMAPOST
  1

  9
$DIMALT
 70
     0
  9
$DIMALTD
 70
     2
  9
$DIMALTF
 40
25.4
  9
$DIMLFAC
 40
1.0
  9
$DIMTOFL
 70
     0
  9
$DIMTVP
 40
0.0
  9
$DIMTIX
 70
     0
  9
$DIMSOXD
 70
     0
  9
$DIMSAH
 70
     0
  9
$DIMBLK1
  1

  9
$DIMBLK2
  1

  9
$DIMSTYLE
  2
STANDARD
  9
$DIMCLRD
 70
     0
  9
$DIMCLRE
 70
     0
  9
$DIMCLRT
 70
     0
  9
$DIMTFAC
 40
1.0
  9
$DIMGAP
 40
0.09
  9
$LUNITS
 70
     2
  9
$LUPREC
 70
     3
  9
$SKETCHINC
 40
0.1
  9
$FILLETRAD
 40
0.5
  9
$AUNITS
 70
     0
  9
$AUPREC
 70
     0
  9
$MENU
  1
.
  9
$ELEVATION
 40
0.0
  9
$PELEVATION
 40
0.0
  9
$THICKNESS
 40
0.0
  9
$LIMCHECK
 70
     0
  9
$CHAMFERA
 40
0.5
  9
$CHAMFERB
 40
0.5
  9
$SKPOLY
 70
     0
  9
$TDCREATE
 40
2456626.021904051
  9
$TDUPDATE
 40
2456626.021904595
  9
$TDINDWG
 40
0.0000000116
  9
$TDUSRTIMER
 40
0.0000000116
  9
$USRTIMER
 70
     1
  9
$ANGBASE
 50
0.0
  9
$ANGDIR
 70
     0
  9
$PDMODE
 70
     0
  9
$PDSIZE
 40
0.0
  9
$PLINEWID
 40
0.0
  9
$COORDS
 70
     1
  9
$SPLFRAME
 70
     0
  9
$SPLINETYPE
 70
     6
  9
$SPLINESEGS
 70
     8
  9
$ATTDIA
 70
     0
  9
$ATTREQ
 70
     1
  9
$HANDLING
 70
     1
  9
$HANDSEED
  5
4BB
  9
$SURFTAB1
 70
     6
  9
$SURFTAB2
 70
     6
  9
$SURFTYPE
 70
     6
  9
$SURFU
 70
     6
  9
$SURFV
 70
     6
  9
$UCSNAME
  2

  9
$UCSORG
 10
0.0
 20
0.0
 30
0.0
  9
$UCSXDIR
 10
1.0
 20
0.0
 30
0.0
  9
$UCSYDIR
 10
0.0
 20
1.0
 30
0.0
  9
$PUCSNAME
  2

  9
$PUCSORG
 10
0.0
 20
0.0
 30
0.0
  9
$PUCSXDIR
 10
1.0
 20
0.0
 30
0.0
  9
$PUCSYDIR
 10
0.0
 20
1.0
 30
0.0
  9
$USERI1
 70
     0
  9
$USERI2
 70
     0
  9
$USERI3
 70
     0
  9
$USERI4
 70
     0
  9
$USERI5
 70
     0
  9
$USERR1
 40
0.0
  9
$USERR2
 40
0.0
  9
$USERR3
 40
0.0
  9
$USERR4
 40
0.0
  9
$USERR5
 40
0.0
  9
$WORLDVIEW
 70
     1
  9
$SHADEDGE
 70
     3
  9
$SHADEDIF
 70
    70
  9
$TILEMODE
 70
     1
  9
$MAXACTVP
 70
    64
  9
$PLIMCHECK
 70
     0
  9
$PEXTMIN
 10
1.000000000000000E+20
 20
1.000000000000000E+20
 30
1.000000000000000E+20
  9
$PEXTMAX
 10
-1.000000000000000E+20
 20
-1.000000000000000E+20
 30
-1.000000000000000E+20
  9
$PLIMMIN
 10
0.0
 20
0.0
  9
$PLIMMAX
 10
12.0
 20
9.0
  9
$UNITMODE
 70
     0
  9
$VISRETAIN
 70
     1
  9
$PLINEGEN
 70
     0
  9
$PSLTSCALE
 70
     1
  0
ENDSEC
  0
SECTION
  2
TABLES
  0
TABLE
  2
VPORT
 70
     1
  0
VPORT
  2
*ACTIVE
 70
     0
 10
0.0
 20
0.0
 11
1.0
 21
1.0
 12
181.8520339580605
 22
145.999999834427
 13
0.0
 23
0.0
 14
0.5
 24
0.5
 15
0.5
 25
0.5
 16
0.0
 26
0.0
 36
1.0
 17
0.0
 27
0.0
 37
0.0
 40
297.8400003377689
 41
1.245561896442672
 42
50.0
 43
0.0
 44
0.0
 50
0.0
 51
0.0
 71
     0
 72
   100
 73
     1
 74
     3
 75
     0
 76
     0
 77
     0
 78
     0
  0
ENDTAB
  0
TABLE
  2
LTYPE
 70
     1
  0
LTYPE
  2
CONTINUOUS
 70
     0
  3
Solid line
 72
    65
 73
     0
 40
0.0
  0
ENDTAB
  0
TABLE
  2
LAYER
 70
     3
  0
LAYER
  2
0
 70
     0
 62
     7
  6
CONTINUOUS
  0
LAYER
  2
STENCILS
 70
     0
 62
     7
  6
CONTINUOUS
  0
LAYER
  2
DEFAULT
 70
     0
 62
     7
  6
CONTINUOUS
  0
ENDTAB
  0
TABLE
  2
STYLE
 70
     1
  0
STYLE
  2
STANDARD
 70
     0
 40
0.0
 41
1.0
 50
0.0
 71
     0
 42
0.2
  3
txt
  4

  0
ENDTAB
  0
TABLE
  2
VIEW
 70
     0
  0
ENDTAB
  0
TABLE
  2
UCS
 70
     0
  0
ENDTAB
  0
TABLE
  2
APPID
 70
     1
  0
APPID
  2
ACAD
 70
     0
  0
ENDTAB
  0
TABLE
  2
DIMSTYLE
 70
     1
  0
DIMSTYLE
  2
STANDARD
 70
     0
  3

  4

  5

  6

  7

 40
1.0
 41
0.18
 42
0.0625
 43
0.38
 44
0.18
 45
0.0
 46
0.0
 47
0.0
 48
0.0
140
0.18
141
0.09
142
0.0
143
25.4
144
1.0
145
0.0
146
1.0
147
0.09
 71
     0
 72
     0
 73
     1
 74
     1
 75
     0
 76
     0
 77
     0
 78
     0
170
     0
171
     2
172
     0
173
     0
174
     0
175
     0
176
     0
177
     0
178
     0
  0
ENDTAB
  0
ENDSEC
  0
SECTION
  2
BLOCKS
  0
BLOCK
  8
0
  2
$MODEL_SPACE
 70
     0
 10
0.0
 20
0.0
 30
0.0
  3
$MODEL_SPACE
  1

  0
ENDBLK
  5
21
  8
0
  0
BLOCK
 67
     1
  8
0
  2
$PAPER_SPACE
 70
     0
 10
0.0
 20
0.0
 30
0.0
  3
$PAPER_SPACE
  1

  0
ENDBLK
  5
1D
 67
     1
  8
0
  0
ENDSEC
  0
SECTION
  2
ENTITIES
  0
CIRCLE
  5
40
  8
0
 10
14.9999988736
 20
37.068178374656
 30
0.0000000000000284
 40
2.499999956992
  0
CIRCLE
  5
41
  8
0
 10
14.9999988736
 20
21.99999864832
 30
0.0000000000000284
 40
2.499999956992
  0
LINE
  5
42
  8
0
 10
0.0
 20
0.0
 30
0.0000000000000284
 11
120.5783211677
 21
0.0
 31
0.0000000000000284
  0
LINE
  5
43
  8
0
 10
50.583854675293
 20
113.549591064453
 30
0.0000000000000284
 11
-0.0000031288010014
 21
66.909196481628
 31
0.0000000000000284
  0
LINE
  5
44
  8
0
 10
0.0
 20
66.909194946289
 30
0.0000000000000284
 11
0.0
 21
-0.0000003311460013
 31
0.0000000000000284
  0
LINE
  5
45
  8
0
 10
11.5
 20
4.618013381958001
 30
0.0000000000000284
 11
18.5
 21
4.618013381958001
 31
0.0000000000000284
  0
LINE
  5
46
  8
0
 10
18.5
 20
4.618013381958001
 30
0.0000000000000284
 11
18.5
 21
12.018013373017
 31
0.0000000000000284
  0
LINE
  5
47
  8
0
 10
18.5
 20
12.018013000488
 30
0.0000000000000284
 11
11.5
 21
12.018013000488
 31
0.0000000000000284
  0
LINE
  5
48
  8
0
 10
11.5
 20
12.018013000488
 30
0.0000000000000284
 11
11.5
 21
4.618013009428999
 31
0.0000000000000284
  0
LINE
  5
49
  8
0
 10
31.5
 20
4.618013381958001
 30
0.0000000000000284
 11
38.5
 21
4.618013381958001
 31
0.0000000000000284
  0
LINE
  5
4A
  8
0
 10
38.5
 20
12.018013000488
 30
0.0000000000000284
 11
31.5
 21
12.018013000488
 31
0.0000000000000284
  0
LINE
  5
4B
  8
0
 10
31.5
 20
12.018013000488
 30
0.0000000000000284
 11
31.5
 21
4.618013009428999
 31
0.0000000000000284
  0
LINE
  5
4C
  8
0
 10
11.5
 20
25.799999237061
 30
0.0000000000000284
 11
18.5
 21
25.799999237061
 31
0.0000000000000284
  0
LINE
  5
4D
  8
0
 10
18.5
 20
25.799999237061
 30
0.0000000000000284
 11
18.5
 21
33.19999922812
 31
0.0000000000000284
  0
LINE
  5
4E
  8
0
 10
18.5
 20
33.200000762939
 30
0.0000000000000284
 11
11.5
 21
33.200000762939
 31
0.0000000000000284
  0
LINE
  5
4F
  8
0
 10
11.5
 20
33.200000762939
 30
0.0000000000000284
 11
11.5
 21
25.80000077188
 31
0.0000000000000284
  0
LINE
  5
50
  8
0
 10
31.5
 20
25.799999237061
 30
0.0000000000000284
 11
38.5
 21
25.799999237061
 31
0.0000000000000284
  0
LINE
  5
51
  8
0
 10
38.5
 20
33.200000762939
 30
0.0000000000000284
 11
31.5
 21
33.200000762939
 31
0.0000000000000284
  0
LINE
  5
52
  8
0
 10
31.5
 20
33.200000762939
 30
0.0000000000000284
 11
31.5
 21
25.80000077188
 31
0.0000000000000284
  0
ARC
  5
53
  8
0
 10
75.257377624512
 20
107.606559753418
 30
0.0000000000000284
 40
49.042756085839
 50
130.228292298619
 51
157.162408473168
  0
ARC
  5
54
  8
0
 10
44.51743316650401
 20
147.944030761719
 30
0.0000000000000284
 40
25.746052487135
 50
235.83533834071
 51
304.258435048096
  0
ARC
  5
56
  8
STENCILS
 10
243.0
 20
33.0
 30
-0.0000000000001137
 40
3.0
 50
269.9999999999956
 51
0.0
  0
LINE
  5
57
  8
STENCILS
 10
246.0
 20
80.0
 30
-0.0000000000001137
 11
246.0
 21
33.0
 31
-0.0000000000001137
  0
ARC
  5
58
  8
STENCILS
 10
243.0
 20
80.0
 30
-0.0000000000001137
 40
3.0
 50
359.9999999999994
 51
90.0
  0
LINE
  5
59
  8
STENCILS
 10
212.0
 20
83.0
 30
-0.0000000000001137
 11
243.0
 21
83.0
 31
-0.0000000000001137
  0
LINE
  5
5A
  8
STENCILS
 10
212.0
 20
61.0
 30
-0.0000000000001137
 11
212.0
 21
83.0
 31
-0.0000000000001137
  0
LINE
  5
5B
  8
STENCILS
 10
231.0000000000001
 20
61.0
 30
-0.0000000000001137
 11
212.0
 21
61.0
 31
-0.0000000000001137
  0
ARC
  5
5C
  8
STENCILS
 10
231.0
 20
58.0
 30
-0.0000000000001137
 40
3.0
 50
0.0000000000005428
 51
89.99999999999784
  0
LINE
  5
5D
  8
STENCILS
 10
234.0
 20
30.0
 30
-0.0000000000001137
 11
234.0
 21
58.0
 31
-0.0000000000001137
  0
LINE
  5
5E
  8
STENCILS
 10
242.9999999999998
 20
30.0
 30
-0.0000000000001137
 11
234.0
 21
30.0
 31
-0.0000000000001137
  0
CIRCLE
  5
5F
  8
STENCILS
 10
240.0
 20
76.9999999955273
 30
0.0
 40
2.5
  0
CIRCLE
  5
60
  8
STENCILS
 10
240.0
 20
56.0
 30
0.0
 40
2.5
  0
CIRCLE
  5
61
  8
STENCILS
 10
222.9999999970198
 20
64.99999998509651
 30
0.0
 40
1.5
  0
CIRCLE
  5
62
  8
STENCILS
 10
222.9999999970198
 20
78.99999998509651
 30
0.0
 40
1.5
  0
LINE
  5
63
  8
STENCILS
 10
90.0
 20
83.39999999999992
 30
-0.0000000000001137
 11
90.0
 21
72.59999999254939
 31
-0.0000000000001137
  0
LINE
  5
64
  8
STENCILS
 10
92.0
 20
83.39999999999992
 30
-0.0000000000001137
 11
90.0
 21
83.39999999999992
 31
-0.0000000000001137
  0
LINE
  5
65
  8
STENCILS
 10
96.0
 20
81.0999999999998
 30
-0.0000000000001137
 11
92.0
 21
83.39999999999992
 31
-0.0000000000001137
  0
LINE
  5
66
  8
STENCILS
 10
96.0
 20
74.89999999999998
 30
-0.0000000000001137
 11
96.0
 21
81.0999999999998
 31
-0.0000000000001137
  0
LINE
  5
67
  8
STENCILS
 10
92.0
 20
72.59999999254939
 30
-0.0000000000001137
 11
90.0
 21
72.59999999254939
 31
-0.0000000000001137
  0
LINE
  5
68
  8
STENCILS
 10
96.0
 20
74.89999999999998
 30
-0.0000000000001137
 11
92.0
 21
72.59999999254939
 31
-0.0000000000001137
  0
LINE
  5
69
  8
STENCILS
 10
82.0
 20
67.99999999999989
 30
-0.0000000000001137
 11
82.0
 21
82.99999999254948
 31
-0.0000000000001137
  0
LINE
  5
6A
  8
STENCILS
 10
75.99999999552733
 20
47.99999999254931
 30
-0.0000000000001137
 11
82.0
 21
67.99999999999989
 31
-0.0000000000001137
  0
LINE
  5
6B
  8
STENCILS
 10
75.99999999552733
 20
33.99999999254931
 30
-0.0000000000001137
 11
75.99999999552733
 21
47.99999999254931
 31
-0.0000000000001137
  0
LINE
  5
6C
  8
STENCILS
 10
87.99999999552733
 20
33.99999999254931
 30
-0.0000000000001137
 11
75.99999999552733
 21
33.99999999254931
 31
-0.0000000000001137
  0
LINE
  5
6D
  8
STENCILS
 10
109.9999999955273
 20
67.9999999925493
 30
-0.0000000000001137
 11
87.99999999552733
 21
33.99999999254931
 31
-0.0000000000001137
  0
LINE
  5
6E
  8
STENCILS
 10
109.9999999955273
 20
107.9999999925493
 30
-0.0000000000001137
 11
109.9999999955273
 21
67.9999999925493
 31
-0.0000000000001137
  0
LINE
  5
6F
  8
STENCILS
 10
87.99999999552733
 20
128.9999999925493
 30
-0.0000000000001137
 11
109.9999999955273
 21
107.9999999925493
 31
-0.0000000000001137
  0
LINE
  5
70
  8
STENCILS
 10
75.99999999552733
 20
128.9999999925493
 30
-0.0000000000001137
 11
87.99999999552733
 21
128.9999999925493
 31
-0.0000000000001137
  0
LINE
  5
71
  8
STENCILS
 10
75.99999999552733
 20
114.9999999925493
 30
-0.0000000000001137
 11
75.99999999552733
 21
128.9999999925493
 31
-0.0000000000001137
  0
LINE
  5
72
  8
STENCILS
 10
82.0
 20
107.9999999999999
 30
-0.0000000000001137
 11
75.99999999552733
 21
114.9999999925493
 31
-0.0000000000001137
  0
LINE
  5
73
  8
STENCILS
 10
82.0
 20
82.99999999999977
 30
-0.0000000000001137
 11
82.0
 21
107.9999999999999
 31
-0.0000000000001137
  0
CIRCLE
  5
74
  8
STENCILS
 10
100.0
 20
97.99999998509901
 30
-0.0000000000001137
 40
2.5
  0
CIRCLE
  5
75
  8
STENCILS
 10
100.0
 20
77.99999999999989
 30
0.0
 40
2.5
  0
CIRCLE
  5
76
  8
STENCILS
 10
80.99999998807903
 20
41.0000000149011
 30
0.0
 40
2.5
  0
CIRCLE
  5
77
  8
STENCILS
 10
80.99999998807903
 20
122.0000000149011
 30
0.0
 40
2.5
  0
LINE
  5
78
  8
STENCILS
 10
45.0
 20
153.0
 30
-0.0000000000000568
 11
45.0
 21
156.6002696650791
 31
-0.0000000000000568
  0
ARC
  5
79
  8
STENCILS
 10
42.0
 20
153.0
 30
-0.0000000000000568
 40
3.0
 50
270.0000000000001
 51
0.0
  0
LINE
  5
7A
  8
STENCILS
 10
31.32455532033691
 20
149.9999999999999
 30
-0.0000000000000568
 11
42.0
 21
150.0
 31
-0.0000000000000568
  0
ARC
  5
7B
  8
STENCILS
 10
31.32455532033669
 20
143.9999999999999
 30
-0.0000000000000568
 40
6.0
 50
89.9999999999977
 51
161.5650511770789
  0
LINE
  5
7C
  8
STENCILS
 10
20.0
 20
129.0
 30
-0.0000000000000568
 11
25.63245553203359
 21
145.8973665961009
 31
-0.0000000000000568
  0
LINE
  5
7D
  8
STENCILS
 10
0.0
 20
129.0000000000001
 30
-0.0000000000000568
 11
20.0
 21
129.0
 31
-0.0000000000000568
  0
LINE
  5
7E
  8
STENCILS
 10
0.0
 20
143.0000000000001
 30
-0.000000000003638
 11
0.0
 21
129.0000000000001
 31
-0.0000000000000568
  0
ARC
  5
7F
  8
STENCILS
 10
48.53500050603145
 20
172.2048770431055
 30
-0.0000000000035243
 40
15.99999999999995
 50
102.7641046944965
 51
257.2358953055035
  0
CIRCLE
  5
80
  8
STENCILS
 10
33.535030506032
 20
156.7049070431053
 30
-0.000000000003638
 40
2.500000000000057
  0
CIRCLE
  5
81
  8
STENCILS
 10
33.53503050603189
 20
187.7049070431054
 30
-0.000000000003638
 40
2.499999999999943
  0
CIRCLE
  5
82
  8
STENCILS
 10
13.0
 20
180.0000000000001
 30
-0.0000000000035243
 40
2.5
  0
CIRCLE
  5
83
  8
STENCILS
 10
4.999999992549476
 20
216.0
 30
-0.000000000003638
 40
2.5
  0
CIRCLE
  5
84
  8
STENCILS
 10
13.0
 20
160.000000014901
 30
-0.000000000003638
 40
2.5
  0
LINE
  5
85
  8
STENCILS
 10
0.0
 20
210.0000000000001
 30
-0.000000000003638
 11
3.0
 21
190.0000000074507
 31
-0.000000000003638
  0
LINE
  5
86
  8
STENCILS
 10
3.0
 20
185.4000000074506
 30
-0.000000000003638
 11
3.0
 21
190.0000000074507
 31
-0.000000000003638
  0
LINE
  5
87
  8
STENCILS
 10
5.0
 20
185.4000000074506
 30
-0.000000000003638
 11
3.0
 21
185.4000000074506
 31
-0.000000000003638
  0
LINE
  5
88
  8
STENCILS
 10
9.0
 20
183.1
 30
-0.000000000003638
 11
5.0
 21
185.4000000074506
 31
-0.000000000003638
  0
LINE
  5
89
  8
STENCILS
 10
3.0
 20
174.6000000000001
 30
-0.000000000003638
 11
3.0
 21
170.0000000037254
 31
-0.000000000003638
  0
LINE
  5
8A
  8
STENCILS
 10
5.0
 20
174.6000000000001
 30
-0.000000000003638
 11
3.0
 21
174.6000000000001
 31
-0.000000000003638
  0
LINE
  5
8B
  8
STENCILS
 10
9.0
 20
176.9000000000002
 30
-0.000000000003638
 11
5.0
 21
174.6000000000001
 31
-0.000000000003638
  0
LINE
  5
8C
  8
STENCILS
 10
9.0
 20
183.1
 30
-0.000000000003638
 11
9.0
 21
176.9000000000002
 31
-0.000000000003638
  0
LINE
  5
8D
  8
STENCILS
 10
3.0
 20
150.0000000000001
 30
-0.000000000003638
 11
0.0
 21
143.0000000000001
 31
-0.000000000003638
  0
LINE
  5
8E
  8
STENCILS
 10
3.0
 20
170.0000000037254
 30
-0.000000000003638
 11
3.0
 21
150.0000000000001
 31
-0.000000000003638
  0
CIRCLE
  5
8F
  8
STENCILS
 10
4.999999992549533
 20
137.0
 30
-0.0000000000035243
 40
2.5
  0
LINE
  5
90
  8
STENCILS
 10
0.0
 20
224.0
 30
-0.0000000000000568
 11
0.0
 21
210.0
 31
-0.0000000000000568
  0
LINE
  5
91
  8
STENCILS
 10
20.0
 20
224.0
 30
-0.0000000000000568
 11
0.0
 21
224.0
 31
-0.0000000000000568
  0
LINE
  5
92
  8
STENCILS
 10
25.91812146184895
 20
198.6366223063617
 30
-0.0000000000000568
 11
20.0
 21
224.0
 31
-0.0000000000000568
  0
ARC
  5
93
  8
STENCILS
 10
31.76116872029979
 20
200.0
 30
-0.0000000000000568
 40
6.0
 50
193.1340223063944
 51
269.9999999999989
  0
LINE
  5
94
  8
STENCILS
 10
42.0
 20
194.0
 30
-0.0000000000000568
 11
31.76116872029968
 21
194.0
 31
-0.0000000000000568
  0
ARC
  5
95
  8
STENCILS
 10
42.0
 20
191.0
 30
-0.0000000000000568
 40
3.0
 50
0.0
 51
90.00000000000054
  0
LINE
  5
96
  8
STENCILS
 10
45.0
 20
187.8094844211319
 30
-0.0000000000000568
 11
45.0
 21
191.0
 31
-0.0000000000000568
  0
LINE
  5
97
  8
STENCILS
 10
295.0000000000002
 20
116.0
 30
-0.0000000000001137
 11
309.0000000000001
 21
116.0
 31
-0.0000000000001137
  0
LINE
  5
98
  8
STENCILS
 10
309.0000000000001
 20
116.0
 30
-0.0000000000001137
 11
309.0000000000001
 21
144.0
 31
-0.0000000000001137
  0
ARC
  5
99
  8
STENCILS
 10
312.0000000000001
 20
144.0
 30
0.0
 40
3.0
 50
90.0
 51
179.9999999999995
  0
LINE
  5
9A
  8
STENCILS
 10
312.0000000000001
 20
147.0
 30
-0.0000000000001137
 11
318.0000000000001
 21
147.0
 31
-0.0000000000001137
  0
LINE
  5
9B
  8
STENCILS
 10
318.0000000000001
 20
147.0
 30
-0.0000000000001137
 11
318.0000000000001
 21
169.0
 31
-0.0000000000001137
  0
LINE
  5
9C
  8
STENCILS
 10
318.0000000000001
 20
169.0
 30
-0.0000000000001137
 11
295.0000000000002
 21
169.0
 31
-0.0000000000001137
  0
ARC
  5
9D
  8
STENCILS
 10
295.0000000000001
 20
166.0
 30
-0.0000000000001137
 40
3.0
 50
89.99999999999784
 51
180.0
  0
LINE
  5
9E
  8
STENCILS
 10
292.0000000000001
 20
166.0
 30
-0.0000000000001137
 11
292.0000000000001
 21
118.9999999999999
 31
-0.0000000000001137
  0
ARC
  5
9F
  8
STENCILS
 10
295.0000000000001
 20
119.0
 30
-0.0000000000001137
 40
3.0
 50
180.0000000000011
 51
270.0000000000021
  0
CIRCLE
  5
A0
  8
STENCILS
 10
298.0000000000001
 20
162.9999999955273
 30
0.0
 40
2.5
  0
CIRCLE
  5
A1
  8
STENCILS
 10
298.0000000000001
 20
141.9999999999999
 30
0.0
 40
2.5
  0
CIRCLE
  5
A2
  8
STENCILS
 10
307.0000000029804
 20
150.9999999850965
 30
0.0
 40
1.499999999999886
  0
CIRCLE
  5
A3
  8
STENCILS
 10
307.0000000029804
 20
164.9999999850965
 30
0.0
 40
1.499999999999886
  0
CIRCLE
  5
A5
  8
DEFAULT
 10
222.9999999970198
 20
78.99999998509651
 30
-0.0000000000001137
 40
1.25
  0
CIRCLE
  5
A6
  8
DEFAULT
 10
222.9999999970198
 20
64.99999998509651
 30
-0.0000000000001137
 40
1.25
  0
CIRCLE
  5
A7
  8
DEFAULT
 10
307.0000000029804
 20
150.9999999850965
 30
0.0
 40
1.25
  0
CIRCLE
  5
A8
  8
DEFAULT
 10
307.0000000029804
 20
164.9999999850965
 30
-0.0000000000002274
 40
1.25
  0
CIRCLE
  5
A9
  8
0
 10
7.999996185302997
 20
246.0
 30
0.0000000000000284
 40
2.5
  0
LINE
  5
AA
  8
0
 10
4.159620285034997
 20
239.557830810547
 30
0.0000000000000284
 11
41.999997282804
 21
216.999996945862
 31
0.0000000000000284
  0
ARC
  5
AB
  8
0
 10
7.999996185302997
 20
246.0
 30
0.0000000000000284
 40
7.5
 50
162.109068197485
 51
239.1995062915881
  0
LINE
  5
AC
  8
0
 10
13.999996185303
 20
289.0
 30
0.0000000000000284
 11
0.8626734058309964
 21
248.304045038974
 31
0.0000000000000284
  0
LINE
  5
AD
  8
0
 10
71.0
 20
289.0
 30
0.0000000000000284
 11
14.0
 21
289.0
 31
0.0000000000000284
  0
CIRCLE
  5
AE
  8
0
 10
23.999997988198
 20
272.000014927872
 30
0.0000000000000284
 40
1.999999991808
  0
CIRCLE
  5
AF
  8
0
 10
23.999997988198
 20
245.99999419392
 30
0.0000000000000284
 40
1.999999991808
  0
CIRCLE
  5
B0
  8
0
 10
23.999997988198
 20
258.99998778368
 30
0.0000000000000284
 40
9.499999993856
  0
CIRCLE
  5
B1
  8
DEFAULT
 10
216.999998389939
 20
280.099994876237
 30
0.0000000000000284
 40
1.5
  0
CIRCLE
  5
B2
  8
DEFAULT
 10
216.999998389939
 20
266.100012104013
 30
0.0000000000000284
 40
1.5
  0
CIRCLE
  5
B3
  8
DEFAULT
 10
224.999995735731
 20
229.899997690189
 30
0.0000000000000284
 40
1.5
  0
CIRCLE
  5
B4
  8
DEFAULT
 10
225.0
 20
243.899993896484
 30
0.0000000000000284
 40
1.5
  0
CIRCLE
  5
B5
  8
0
 10
255.000006753971
 20
246.999990548813
 30
0.0000000000000284
 40
2.499999956992
  0
CIRCLE
  5
B6
  8
0
 10
255.000006753971
 20
227.000005572941
 30
0.0000000000000284
 40
2.499999956992
  0
CIRCLE
  5
B7
  8
0
 10
187.000004148915
 20
283.000003770701
 30
0.0000000000000284
 40
2.499999956992
  0
CIRCLE
  5
B8
  8
0
 10
187.000004148915
 20
262.999985240397
 30
0.0000000000000284
 40
2.499999956992
  0
LINE
  5
B9
  8
0
 10
182.0
 20
219.0
 30
0.0000000000000284
 11
236.0
 21
219.0
 31
0.0000000000000284
  0
LINE
  5
BA
  8
0
 10
236.0
 20
219.0
 30
0.0000000000000284
 11
236.0
 21
253.0
 31
0.0000000000000284
  0
LINE
  5
BB
  8
0
 10
236.0
 20
253.0
 30
0.0000000000000284
 11
203.0
 21
253.0
 31
0.0000000000000284
  0
LINE
  5
BC
  8
0
 10
203.0
 20
253.0
 30
0.0000000000000284
 11
203.0
 21
291.0
 31
0.0000000000000284
  0
LINE
  5
BD
  8
0
 10
203.0
 20
291.0
 30
0.0000000000000284
 11
171.0
 21
291.0
 31
0.0000000000000284
  0
LINE
  5
BE
  8
0
 10
171.0
 20
291.0
 30
0.0000000000000284
 11
171.0
 21
253.0
 31
0.0000000000000284
  0
LINE
  5
BF
  8
0
 10
171.0
 20
253.0
 30
0.0000000000000284
 11
182.0
 21
219.0
 31
0.0000000000000284
  0
LINE
  5
C0
  8
0
 10
239.0
 20
219.0
 30
0.0000000000000284
 11
271.0
 21
219.0
 31
0.0000000000000284
  0
LINE
  5
C1
  8
0
 10
271.0
 20
219.0
 30
0.0000000000000284
 11
271.0
 21
257.0
 31
0.0000000000000284
  0
LINE
  5
C2
  8
0
 10
271.0
 20
257.0
 30
0.0000000000000284
 11
260.0
 21
291.0
 31
0.0000000000000284
  0
LINE
  5
C3
  8
0
 10
260.0
 20
291.0
 30
0.0000000000000284
 11
206.0
 21
291.0
 31
0.0000000000000284
  0
LINE
  5
C4
  8
0
 10
206.0
 20
291.0
 30
0.0000000000000284
 11
206.0
 21
257.0
 31
0.0000000000000284
  0
LINE
  5
C5
  8
0
 10
206.0
 20
257.0
 30
0.0000000000000284
 11
239.0
 21
257.0
 31
0.0000000000000284
  0
LINE
  5
C6
  8
0
 10
239.0
 20
257.0
 30
0.0000000000000284
 11
239.0
 21
219.0
 31
0.0000000000000284
  0
ARC
  5
C7
  8
0
 10
296.0000000000001
 20
262.0
 30
0.0000000000000284
 40
19.000000004471
 50
161.5053861516659
 51
299.774911228996
  0
LINE
  5
C8
  8
0
 10
286.0
 20
292.0
 30
0.0000000000000266
 11
277.9812838881551
 21
268.02709463087
 31
0.0000000000000266
  0
LINE
  5
C9
  8
0
 10
343.0
 20
292.0
 30
0.0000000000000266
 11
286.0
 21
291.999999999997
 31
0.0000000000000266
  0
LINE
  5
CA
  8
0
 10
343.0
 20
267.0
 30
0.0000000000000266
 11
342.9999999999991
 21
292.0
 31
0.0000000000000266
  0
LINE
  5
CB
  8
0
 10
305.4352722167971
 20
245.508331298828
 30
0.0000000000000266
 11
342.999987448562
 21
267.000008035795
 31
0.0000000000000266
  0
CIRCLE
  5
CC
  8
0
 10
296.0000000000001
 20
275.0
 30
0.0000000000000266
 40
2.0
  0
CIRCLE
  5
CD
  8
0
 10
296.0000000000001
 20
249.0
 30
0.0000000000000266
 40
2.0
  0
CIRCLE
  5
CE
  8
0
 10
296.0000000000001
 20
262.0
 30
0.0000000000000266
 40
9.5
  0
CIRCLE
  5
CF
  8
0
 10
316.0000000000001
 20
277.0
 30
0.0000000000000266
 40
2.5
  0
CIRCLE
  5
D0
  8
0
 10
336.0
 20
277.0
 30
0.0000000000000266
 40
2.5
  0
ARC
  5
D1
  8
0
 10
340.9999999999991
 20
240.0
 30
0.0000000000000284
 40
19.000000004471
 50
341.5053861516659
 51
119.774911228996
  0
LINE
  5
D2
  8
0
 10
350.9999999999991
 20
210.0
 30
0.0000000000000266
 11
359.018716111844
 21
233.97290536913
 31
0.0000000000000266
  0
LINE
  5
D3
  8
0
 10
293.999999999999
 20
210.0
 30
0.0000000000000266
 11
350.9999999999991
 21
210.000000000003
 31
0.0000000000000266
  0
LINE
  5
D4
  8
0
 10
293.999999999999
 20
235.0
 30
0.0000000000000266
 11
294.0
 21
210.0
 31
0.0000000000000266
  0
LINE
  5
D5
  8
0
 10
331.564727783202
 20
256.491668701172
 30
0.0000000000000266
 11
294.000012551437
 21
234.999991964205
 31
0.0000000000000266
  0
CIRCLE
  5
D6
  8
0
 10
340.9999999999991
 20
227.0
 30
0.0000000000000266
 40
2.0
  0
CIRCLE
  5
D7
  8
0
 10
340.9999999999991
 20
253.0
 30
0.0000000000000266
 40
2.0
  0
CIRCLE
  5
D8
  8
0
 10
340.9999999999991
 20
240.0
 30
0.0000000000000266
 40
9.5
  0
CIRCLE
  5
D9
  8
0
 10
320.999999999999
 20
225.0
 30
0.0000000000000266
 40
2.5
  0
CIRCLE
  5
DA
  8
0
 10
300.999999999999
 20
225.0
 30
0.0000000000000266
 40
2.5
  0
LINE
  5
DB
  8
0
 10
363.0
 20
206.0
 30
0.0000000000000284
 11
323.0
 21
206.000000000001
 31
0.0000000000000284
  0
LINE
  5
DC
  8
0
 10
363.0
 20
154.0
 30
0.0000000000000284
 11
363.0
 21
206.0
 31
0.0000000000000284
  0
LINE
  5
DD
  8
0
 10
323.0
 20
154.0
 30
0.0000000000000284
 11
363.0
 21
154.0
 31
0.0000000000000284
  0
LINE
  5
DE
  8
0
 10
323.0
 20
168.157272338867
 30
0.0000000000000284
 11
323.0
 21
153.999991616724
 31
0.0000000000000284
  0
ARC
  5
DF
  8
0
 10
333.0
 20
180.0
 30
0.0000000000000284
 40
15.5
 50
130.1777695401459
 51
229.8222304598529
  0
LINE
  5
E0
  8
0
 10
323.0
 20
206.0
 30
0.0000000000000284
 11
323.0
 21
191.842719286798
 31
0.0000000000000284
  0
CIRCLE
  5
E1
  8
0
 10
333.0
 20
180.0
 30
0.0000000000000284
 40
9.5
  0
CIRCLE
  5
E2
  8
0
 10
353.0
 20
195.0
 30
0.0000000000000284
 40
2.5
  0
CIRCLE
  5
E3
  8
0
 10
353.0
 20
165.0
 30
0.0000000000000284
 40
2.5
  0
CIRCLE
  5
E4
  8
0
 10
283.0
 20
179.0
 30
0.0000000000000284
 40
2.5
  0
CIRCLE
  5
E5
  8
0
 10
283.0
 20
199.0
 30
0.0000000000000284
 40
2.5
  0
CIRCLE
  5
E6
  8
0
 10
303.0
 20
179.0
 30
0.0000000000000284
 40
2.5
  0
CIRCLE
  5
E7
  8
0
 10
303.0
 20
199.0
 30
0.0000000000000284
 40
2.5
  0
LINE
  5
E8
  8
0
 10
276.0
 20
205.0
 30
0.0000000000000284
 11
276.0
 21
173.0
 31
0.0000000000000284
  0
LINE
  5
E9
  8
0
 10
276.0
 20
173.0
 30
0.0000000000000284
 11
313.0
 21
173.0
 31
0.0000000000000284
  0
LINE
  5
EA
  8
0
 10
313.0
 20
173.0
 30
0.0000000000000284
 11
313.0
 21
205.0
 31
0.0000000000000284
  0
LINE
  5
EB
  8
0
 10
313.0
 20
205.0
 30
0.0000000000000284
 11
276.0
 21
205.0
 31
0.0000000000000284
  0
LINE
  5
EC
  8
0
 10
136.499992370605
 20
196.600006103515
 30
0.0000000000000275
 11
138.499992370605
 21
196.600006103515
 31
0.0000000000000275
  0
ARC
  5
ED
  8
0
 10
136.499992370605
 20
198.100006103515
 30
0.0000000000000275
 40
1.5
 50
90.0
 51
269.9999999999956
  0
LINE
  5
EE
  8
0
 10
138.499992370605
 20
199.600006103515
 30
0.0000000000000275
 11
136.499992370605
 21
199.600006103515
 31
0.0000000000000275
  0
ARC
  5
EF
  8
0
 10
138.499992370605
 20
198.100006103515
 30
0.0000000000000275
 40
1.5
 50
269.9999999999956
 51
90.0
  0
LINE
  5
F0
  8
0
 10
136.499992370605
 20
165.600006103515
 30
0.0000000000000275
 11
138.499992370605
 21
165.600006103515
 31
0.0000000000000275
  0
ARC
  5
F1
  8
0
 10
136.499992370605
 20
167.100006103515
 30
0.0000000000000275
 40
1.5
 50
90.0
 51
270.0
  0
LINE
  5
F2
  8
0
 10
138.499992370605
 20
168.600006103515
 30
0.0000000000000275
 11
136.499992370605
 21
168.600006103515
 31
0.0000000000000275
  0
ARC
  5
F3
  8
0
 10
138.499992370605
 20
167.100006103515
 30
0.0000000000000275
 40
1.5
 50
270.0
 51
89.99999999999567
  0
LINE
  5
F4
  8
0
 10
167.499992370605
 20
165.600006103515
 30
0.0000000000000275
 11
169.499992370605
 21
165.600006103515
 31
0.0000000000000275
  0
LINE
  5
F5
  8
0
 10
169.999992370605
 20
156.0
 30
0.0000000000000275
 11
208.999992370605
 21
156.0
 31
0.0000000000000275
  0
ARC
  5
F6
  8
0
 10
168.999992370605
 20
156.0
 30
0.0000000000000284
 40
1.0
 50
0.0
 51
270.0
  0
LINE
  5
F7
  8
0
 10
168.999992370605
 20
124.0
 30
0.0000000000000275
 11
168.999992370605
 21
155.0
 31
0.0000000000000275
  0
LINE
  5
F8
  8
0
 10
148.999992370605
 20
124.0
 30
0.0000000000000275
 11
168.999992370605
 21
124.0
 31
0.0000000000000275
  0
LINE
  5
F9
  8
0
 10
148.999992370605
 20
161.0
 30
0.0000000000000275
 11
148.999992370605
 21
124.0
 31
0.0000000000000275
  0
LINE
  5
FA
  8
0
 10
130.999992370605
 20
161.0
 30
0.0000000000000275
 11
148.999992370605
 21
161.0
 31
0.0000000000000275
  0
LINE
  5
FB
  8
0
 10
130.999992370605
 20
204.0
 30
0.0000000000000275
 11
130.999992370605
 21
161.0
 31
0.0000000000000275
  0
LINE
  5
FC
  8
0
 10
148.999992370605
 20
204.0
 30
0.0000000000000275
 11
130.999992370605
 21
204.0
 31
0.0000000000000275
  0
LINE
  5
FD
  8
0
 10
148.999992370605
 20
208.0
 30
0.0000000000000275
 11
148.999992370605
 21
204.0
 31
0.0000000000000275
  0
LINE
  5
FE
  8
0
 10
209.0
 20
208.0
 30
0.0000000000000275
 11
149.0
 21
208.0
 31
0.0000000000000275
  0
CIRCLE
  5
FF
  8
0
 10
158.999992370605
 20
150.0
 30
0.0000000000000275
 40
2.5
  0
CIRCLE
  5
100
  8
0
 10
158.999992370605
 20
130.0
 30
0.0000000000000275
 40
2.5
  0
CIRCLE
  5
101
  8
0
 10
198.999992370605
 20
193.5
 30
0.0000000000000275
 40
1.2495
  0
CIRCLE
  5
102
  8
0
 10
198.999992370605
 20
170.5
 30
0.0000000000000275
 40
1.2495
  0
ARC
  5
103
  8
0
 10
167.499992370605
 20
198.100006103515
 30
0.0000000000000275
 40
1.5
 50
90.0
 51
270.0
  0
LINE
  5
104
  8
0
 10
169.499992370605
 20
199.600006103515
 30
0.0000000000000275
 11
167.499992370605
 21
199.600006103515
 31
0.0000000000000275
  0
ARC
  5
105
  8
0
 10
169.499992370605
 20
198.100006103515
 30
0.0000000000000275
 40
1.5
 50
269.9999999999956
 51
90.0
  0
LINE
  5
106
  8
0
 10
167.499992370605
 20
196.600006103515
 30
0.0000000000000275
 11
169.499992370605
 21
196.600006103515
 31
0.0000000000000275
  0
ARC
  5
107
  8
0
 10
167.499992370605
 20
167.100006103515
 30
0.0000000000000275
 40
1.5
 50
90.0
 51
270.0
  0
LINE
  5
108
  8
0
 10
169.499992370605
 20
168.600006103515
 30
0.0000000000000275
 11
167.499992370605
 21
168.600006103515
 31
0.0000000000000275
  0
ARC
  5
109
  8
0
 10
169.499992370605
 20
167.100006103515
 30
0.0000000000000275
 40
1.5
 50
269.9999999999956
 51
90.0
  0
ARC
  5
10A
  8
0
 10
215.0
 20
167.0
 30
0.0000000000000275
 40
7.5
 50
294.6223363252631
 51
28.42347810577802
  0
LINE
  5
10B
  8
0
 10
209.0
 20
156.0
 30
0.0000000000000275
 11
218.12476414567
 21
160.181946829634
 31
0.0000000000000275
  0
LINE
  5
10C
  8
0
 10
209.0
 20
193.842742919921
 30
0.0000000000000275
 11
209.0
 21
208.000023642065
 31
0.0000000000000275
  0
LINE
  5
10D
  8
0
 10
221.595901489258
 20
170.569885253906
 30
0.0000000000000275
 11
208.99999947148
 21
193.842719859694
 31
0.0000000000000275
  0
CIRCLE
  5
10E
  8
0
 10
198.999992370605
 20
182.0
 30
0.0000000000000275
 40
9.5
  0
CIRCLE
  5
10F
  8
0
 10
152.999992370605
 20
182.0
 30
0.0000000000000275
 40
12.0
  0
CIRCLE
  5
110
  8
0
 10
215.0
 20
167.0
 30
0.0000000000000275
 40
2.5
  0
CIRCLE
  5
111
  8
0
 10
182.999992370605
 20
167.0
 30
0.0000000000000275
 40
2.5
  0
CIRCLE
  5
112
  8
DEFAULT
 10
198.999992370605
 20
170.5
 30
0.0000000000000275
 40
1.5
  0
CIRCLE
  5
113
  8
DEFAULT
 10
198.999992370605
 20
193.5
 30
0.0000000000000275
 40
1.5
  0
CIRCLE
  5
114
  8
DEFAULT
 10
148.0000057118721
 20
277.000002623815
 30
0.0000000000000284
 40
1.5
  0
CIRCLE
  5
115
  8
DEFAULT
 10
162.000005261312
 20
277.000002623815
 30
0.0000000000000284
 40
1.5
  0
CIRCLE
  5
116
  8
0
 10
143.9999986503681
 20
225.999996475719
 30
0.0000000000000284
 40
2.499999956992
  0
CIRCLE
  5
117
  8
0
 10
164.0000004034559
 20
225.999996475719
 30
0.0000000000000284
 40
2.499999956992
  0
LINE
  5
118
  8
0
 10
137.0
 20
211.0
 30
0.0000000000000284
 11
137.0
 21
232.999999992549
 31
0.0000000000000284
  0
LINE
  5
119
  8
0
 10
137.0
 20
232.999998092651
 30
0.0000000000000284
 11
143.0
 21
257.999998100102
 31
0.0000000000000284
  0
LINE
  5
11A
  8
0
 10
143.0
 20
258.000001907348
 30
0.0000000000000284
 11
143.0
 21
291.000001907348
 31
0.0000000000000284
  0
LINE
  5
11B
  8
0
 10
143.0
 20
291.000001907348
 30
0.0000000000000284
 11
166.0
 21
291.000001907348
 31
0.0000000000000284
  0
LINE
  5
11C
  8
0
 10
166.0
 20
291.000001907348
 30
0.0000000000000284
 11
165.9999999955301
 21
258.000001907348
 31
0.0000000000000284
  0
LINE
  5
11D
  8
0
 10
166.0
 20
258.000001907348
 30
0.0000000000000284
 11
171.000000004392
 21
240.000001907348
 31
0.0000000000000284
  0
LINE
  5
11E
  8
0
 10
171.0
 20
240.000001907348
 30
0.0000000000000284
 11
171.000000000078
 21
211.000001907348
 31
0.0000000000000284
  0
LINE
  5
11F
  8
0
 10
171.0
 20
211.0
 30
0.0000000000000284
 11
137.0
 21
211.0
 31
0.0000000000000284
  0
CIRCLE
  5
120
  8
DEFAULT
 10
93.5
 20
275.0
 30
0.0000000000000284
 40
1.5
  0
CIRCLE
  5
121
  8
DEFAULT
 10
79.5
 20
275.0
 30
0.0000000000000284
 40
1.5
  0
CIRCLE
  5
122
  8
DEFAULT
 10
59.999999077734
 20
231.000005462016
 30
0.0000000000000284
 40
1.5
  0
CIRCLE
  5
123
  8
DEFAULT
 10
45.999999077734
 20
231.000005462016
 30
0.0000000000000284
 40
1.5
  0
CIRCLE
  5
124
  8
0
 10
63.99999730006999
 20
273.9999932928
 30
0.0000000000000284
 40
2.499999956992
  0
CIRCLE
  5
125
  8
0
 10
43.999999741286
 20
273.9999932928
 30
0.0000000000000284
 40
2.499999956992
  0
CIRCLE
  5
126
  8
0
 10
39.999996185303
 20
246.0
 30
0.0000000000000284
 40
2.5
  0
LINE
  5
127
  8
0
 10
42.0
 20
217.0
 30
0.0000000000000284
 11
65.0
 21
217.0
 31
0.0000000000000284
  0
LINE
  5
128
  8
0
 10
65.0
 20
217.0
 30
0.0000000000000284
 11
65.0
 21
242.0
 31
0.0000000000000284
  0
LINE
  5
129
  8
0
 10
65.0
 20
242.0
 30
0.0000000000000284
 11
71.0
 21
267.000000007451
 31
0.0000000000000284
  0
LINE
  5
12A
  8
0
 10
71.0
 20
267.0
 30
0.0000000000000284
 11
71.0
 21
288.999999992549
 31
0.0000000000000284
  0
CIRCLE
  5
12B
  8
0
 10
75.5
 20
232.0
 30
0.0000000000000284
 40
2.5
  0
CIRCLE
  5
12C
  8
0
 10
95.5
 20
232.0
 30
0.0000000000000284
 40
2.5
  0
CIRCLE
  5
12D
  8
0
 10
115.5
 20
247.0
 30
0.0000000000000284
 40
9.5
  0
CIRCLE
  5
12E
  8
0
 10
115.5
 20
260.0
 30
0.0000000000000284
 40
2.0
  0
CIRCLE
  5
12F
  8
0
 10
115.5
 20
234.0
 30
0.0000000000000284
 40
2.0
  0
CIRCLE
  5
130
  8
0
 10
131.5
 20
260.0
 30
0.0000000000000284
 40
2.5
  0
CIRCLE
  5
131
  8
0
 10
99.5
 20
260.0
 30
0.0000000000000284
 40
2.5
  0
LINE
  5
132
  8
0
 10
97.5
 20
289.0
 30
0.0000000000000284
 11
74.500000000001
 21
288.999999999999
 31
0.0000000000000284
  0
LINE
  5
133
  8
0
 10
74.5
 20
289.0
 30
0.0000000000000284
 11
74.500000000002
 21
264.0
 31
0.0000000000000284
  0
LINE
  5
134
  8
0
 10
74.5
 20
264.0
 30
0.0000000000000284
 11
68.500000000002
 21
238.999999992549
 31
0.0000000000000284
  0
LINE
  5
135
  8
0
 10
68.5
 20
239.0
 30
0.0000000000000284
 11
68.500000000001
 21
217.000000007451
 31
0.0000000000000284
  0
LINE
  5
136
  8
0
 10
125.5
 20
217.0
 30
0.0000000000000284
 11
138.637322779471
 21
257.695954961026
 31
0.0000000000000284
  0
ARC
  5
137
  8
0
 10
131.5
 20
260.0
 30
0.0000000000000284
 40
7.5
 50
342.1090681974882
 51
59.19950629159096
  0
LINE
  5
138
  8
0
 10
135.340377807618
 20
266.442169189453
 30
0.0000000000000284
 11
97.500000809847
 21
289.000003054136
 31
0.0000000000000284
  0
LINE
  5
139
  8
0
 10
68.5
 20
217.0
 30
0.0000000000000284
 11
125.5
 21
217.000000000002
 31
0.0000000000000284
  0
ARC
  5
13A
  8
0
 10
66.99999809265307
 20
181.0
 30
0.0000000000000284
 40
19.000000004471
 50
161.5053861516659
 51
299.7749112289949
  0
LINE
  5
13B
  8
0
 10
56.99999809265307
 20
211.0
 30
0.0000000000000284
 11
48.98128198080803
 21
187.02709463087
 31
0.0000000000000284
  0
LINE
  5
13C
  8
0
 10
114.000000000001
 20
211.0
 30
0.0000000000000284
 11
57.00000000000102
 21
210.999999999997
 31
0.0000000000000284
  0
LINE
  5
13D
  8
0
 10
114.000000000001
 20
186.0
 30
0.0000000000000284
 11
114.0
 21
211.0
 31
0.0000000000000284
  0
LINE
  5
13E
  8
0
 10
76.43528556823901
 20
164.508331298828
 30
0.0000000000000284
 11
114.000000800004
 21
186.000008035795
 31
0.0000000000000284
  0
CIRCLE
  5
13F
  8
0
 10
66.99999809265307
 20
194.0
 30
0.0000000000000284
 40
2.0
  0
CIRCLE
  5
140
  8
0
 10
66.99999809265307
 20
168.0
 30
0.0000000000000284
 40
2.0
  0
CIRCLE
  5
141
  8
0
 10
66.99999809265307
 20
181.0
 30
0.0000000000000284
 40
9.5
  0
CIRCLE
  5
142
  8
0
 10
86.99999809265307
 20
196.0
 30
0.0000000000000284
 40
2.5
  0
CIRCLE
  5
143
  8
0
 10
107.000000000001
 20
196.0
 30
0.0000000000000284
 40
2.5
  0
CIRCLE
  5
144
  8
STENCILS
 10
254.0000000149013
 20
197.0
 30
0.0000000000000284
 40
1.5
  0
CIRCLE
  5
145
  8
STENCILS
 10
242.0
 20
182.0
 30
0.0000000000000284
 40
2.5
  0
CIRCLE
  5
146
  8
STENCILS
 10
262.0
 20
182.0
 30
0.0000000000000284
 40
2.5
  0
CIRCLE
  5
147
  8
STENCILS
 10
262.0000000149013
 20
197.0
 30
0.0000000000000284
 40
1.5
  0
ARC
  5
148
  8
STENCILS
 10
269.0000000149013
 20
202.0
 30
0.0000000000000284
 40
3.0
 50
0.0
 51
90.0
  0
LINE
  5
149
  8
STENCILS
 10
272.0000000149013
 20
176.0
 30
0.0000000000000284
 11
272.0000000149013
 21
202.0
 31
0.0000000000000284
  0
LINE
  5
14A
  8
STENCILS
 10
232.0
 20
176.0
 30
0.0000000000000284
 11
272.0000000149013
 21
176.0
 31
0.0000000000000284
  0
LINE
  5
14B
  8
STENCILS
 10
232.0
 20
202.0
 30
0.0000000000000284
 11
232.0
 21
176.0
 31
0.0000000000000284
  0
ARC
  5
14C
  8
STENCILS
 10
235.0
 20
202.0
 30
0.0000000000000284
 40
3.0
 50
90.0
 51
180.0
  0
LINE
  5
14D
  8
STENCILS
 10
269.0000000149013
 20
205.0
 30
0.0000000000000284
 11
235.0
 21
205.0
 31
0.0000000000000284
  0
ARC
  5
14E
  8
0
 10
357.304077148438
 20
7.597799301146999
 30
0.0000000000000284
 40
2.5
 50
0.0
 51
180.0
  0
LINE
  5
14F
  8
0
 10
359.804077148438
 20
5.597799301146999
 30
0.0000000000000284
 11
359.804077148438
 21
7.597799301146999
 31
0.0000000000000284
  0
ARC
  5
150
  8
0
 10
357.304077148438
 20
5.597799301146999
 30
0.0000000000000284
 40
2.5
 50
180.0
 51
0.0
  0
LINE
  5
151
  8
0
 10
354.804077148438
 20
7.597799301146999
 30
0.0000000000000284
 11
354.804077148438
 21
5.597799301146999
 31
0.0000000000000284
  0
ARC
  5
152
  8
0
 10
357.304077148438
 20
54.797798156738
 30
0.0000000000000284
 40
2.5
 50
0.0
 51
180.0
  0
LINE
  5
153
  8
0
 10
359.804077148438
 20
52.797798156738
 30
0.0000000000000284
 11
359.804077148438
 21
54.797798156738
 31
0.0000000000000284
  0
ARC
  5
154
  8
0
 10
357.304077148438
 20
52.797798156738
 30
0.0000000000000284
 40
2.5
 50
180.0
 51
0.0
  0
LINE
  5
155
  8
0
 10
354.804077148438
 20
54.797798156738
 30
0.0000000000000284
 11
354.804077148438
 21
52.797798156738
 31
0.0000000000000284
  0
LINE
  5
156
  8
0
 10
359.086059570312
 20
73.697799682617
 30
0.0000000000000284
 11
351.686059579253
 21
73.697799682617
 31
0.0000000000000284
  0
LINE
  5
157
  8
0
 10
359.086059570312
 20
66.697799682617
 30
0.0000000000000284
 11
359.086059570312
 21
73.697799682617
 31
0.0000000000000284
  0
LINE
  5
158
  8
0
 10
351.686065673828
 20
66.697799682617
 30
0.0000000000000284
 11
359.086065664887
 21
66.697799682617
 31
0.0000000000000284
  0
LINE
  5
159
  8
0
 10
351.686065673828
 20
73.697799682617
 30
0.0000000000000284
 11
351.686065673828
 21
66.697799682617
 31
0.0000000000000284
  0
LINE
  5
15A
  8
0
 10
359.086059570312
 20
93.697799682617
 30
0.0000000000000284
 11
351.686059579253
 21
93.697799682617
 31
0.0000000000000284
  0
LINE
  5
15B
  8
0
 10
359.086059570312
 20
86.697799682617
 30
0.0000000000000284
 11
359.086059570312
 21
93.697799682617
 31
0.0000000000000284
  0
LINE
  5
15C
  8
0
 10
351.686065673828
 20
86.697799682617
 30
0.0000000000000284
 11
359.086065664887
 21
86.697799682617
 31
0.0000000000000284
  0
LINE
  5
15D
  8
0
 10
351.686065673828
 20
93.697799682617
 30
0.0000000000000284
 11
351.686065673828
 21
86.697799682617
 31
0.0000000000000284
  0
LINE
  5
15E
  8
0
 10
337.904083251953
 20
73.697799682617
 30
0.0000000000000284
 11
330.504083260894
 21
73.697799682617
 31
0.0000000000000284
  0
LINE
  5
15F
  8
0
 10
337.904083251953
 20
66.697799682617
 30
0.0000000000000284
 11
337.904083251953
 21
73.697799682617
 31
0.0000000000000284
  0
LINE
  5
160
  8
0
 10
330.504089355469
 20
66.697799682617
 30
0.0000000000000284
 11
337.904089346528
 21
66.697799682617
 31
0.0000000000000284
  0
LINE
  5
161
  8
0
 10
330.504089355469
 20
73.697799682617
 30
0.0000000000000284
 11
330.504089355469
 21
66.697799682617
 31
0.0000000000000284
  0
LINE
  5
162
  8
0
 10
337.904083251953
 20
93.697799682617
 30
0.0000000000000284
 11
330.504083260894
 21
93.697799682617
 31
0.0000000000000284
  0
LINE
  5
163
  8
0
 10
337.904083251953
 20
86.697799682617
 30
0.0000000000000284
 11
337.904083251953
 21
93.697799682617
 31
0.0000000000000284
  0
LINE
  5
164
  8
0
 10
330.504089355469
 20
86.697799682617
 30
0.0000000000000284
 11
337.904089346528
 21
86.697799682617
 31
0.0000000000000284
  0
LINE
  5
165
  8
0
 10
330.504089355469
 20
93.697799682617
 30
0.0000000000000284
 11
330.504089355469
 21
86.697799682617
 31
0.0000000000000284
  0
ARC
  5
166
  8
0
 10
310.104064941406
 20
7.597799301146999
 30
0.0000000000000284
 40
2.5
 50
0.0
 51
180.0
  0
LINE
  5
167
  8
0
 10
312.604064941406
 20
5.597799301146999
 30
0.0000000000000284
 11
312.604064941406
 21
7.597799301146999
 31
0.0000000000000284
  0
ARC
  5
168
  8
0
 10
310.104064941406
 20
5.597799301146999
 30
0.0000000000000284
 40
2.5
 50
180.0
 51
0.0
  0
LINE
  5
169
  8
0
 10
307.604064941406
 20
7.597799301146999
 30
0.0000000000000284
 11
307.604064941406
 21
5.597799301146999
 31
0.0000000000000284
  0
ARC
  5
16A
  8
0
 10
310.104064941406
 20
54.797798156738
 30
0.0000000000000284
 40
2.5
 50
0.0
 51
180.0
  0
LINE
  5
16B
  8
0
 10
312.604064941406
 20
52.797798156738
 30
0.0000000000000284
 11
312.604064941406
 21
54.797798156738
 31
0.0000000000000284
  0
ARC
  5
16C
  8
0
 10
310.104064941406
 20
52.797798156738
 30
0.0000000000000284
 40
2.5
 50
180.0
 51
0.0
  0
LINE
  5
16D
  8
0
 10
307.604064941406
 20
54.797798156738
 30
0.0000000000000284
 11
307.604064941406
 21
52.797798156738
 31
0.0000000000000284
  0
LINE
  5
16E
  8
0
 10
314.704071044922
 20
100.197799682617
 30
0.0000000000000284
 11
303.704071049392
 21
60.197799682617
 31
0.0000000000000284
  0
LINE
  5
16F
  8
0
 10
314.704071044922
 20
130.197799682617
 30
0.0000000000000284
 11
314.704071044922
 21
100.197799687088
 31
0.0000000000000284
  0
ARC
  5
170
  8
0
 10
333.704071044922
 20
130.197799682617
 30
0.0000000000000284
 40
19.00000000447
 50
71.50538615166403
 51
180.0
  0
LINE
  5
171
  8
0
 10
363.704071044922
 20
140.197799682617
 30
0.0000000000000284
 11
339.731165675793
 21
148.216515794463
 31
0.0000000000000284
  0
LINE
  5
172
  8
0
 10
363.704071044922
 20
0.1977977752689988
 30
0.0000000000000284
 11
363.704071044922
 21
140.197797775268
 31
0.0000000000000284
  0
LINE
  5
173
  8
0
 10
303.704071044922
 20
0.1977977752689988
 30
0.0000000000000284
 11
363.704071037471
 21
0.1977977752680005
 31
0.0000000000000284
  0
LINE
  5
174
  8
0
 10
303.704071044922
 20
60.197799682617
 30
0.0000000000000284
 11
303.704071052372
 21
0.1977996826169992
 31
0.0000000000000284
  0
CIRCLE
  5
175
  8
0
 10
333.704071044922
 20
30.197799682617
 30
0.0000000000000284
 40
20.0
  0
CIRCLE
  5
176
  8
0
 10
341.704071044922
 20
90.197799682617
 30
0.0000000000000284
 40
2.5
  0
CIRCLE
  5
177
  8
0
 10
326.635894775391
 20
90.197799682617
 30
0.0000000000000284
 40
2.5
  0
CIRCLE
  5
178
  8
0
 10
326.635894775391
 20
70.197799682617
 30
0.0000000000000284
 40
2.5
  0
CIRCLE
  5
179
  8
0
 10
341.704071044922
 20
70.197799682617
 30
0.0000000000000284
 40
2.5
  0
CIRCLE
  5
17A
  8
0
 10
346.704071044922
 20
130.197799682617
 30
0.0000000000000284
 40
2.0
  0
CIRCLE
  5
17B
  8
0
 10
320.704071044922
 20
130.197799682617
 30
0.0000000000000284
 40
2.0
  0
CIRCLE
  5
17C
  8
0
 10
333.704071044922
 20
130.197799682617
 30
0.0000000000000284
 40
9.5
  0
ARC
  5
17D
  8
0
 10
242.883514404297
 20
64.222763061523
 30
0.0000000000000284
 40
40.322202843333
 50
129.913156663121
 51
165.212509738577
  0
LINE
  5
17E
  8
0
 10
50.032920837402
 20
132.189178466797
 30
0.0000000000000284
 11
50.10196022637599
 21
132.188516378011
 31
0.0000000000000284
  0
LINE
  5
17F
  8
0
 10
49.963943481445
 20
132.192230224609
 30
0.0000000000000284
 11
50.03291887989801
 21
132.189185557191
 31
0.0000000000000284
  0
LINE
  5
180
  8
0
 10
49.89511108398401
 20
132.197647094727
 30
0.0000000000000284
 11
49.96394029263099
 21
132.192223477064
 31
0.0000000000000284
  0
LINE
  5
181
  8
0
 10
49.82651519775401
 20
132.205444335938
 30
0.0000000000000284
 11
49.89511619152501
 21
132.197648231458
 31
0.0000000000000284
  0
LINE
  5
182
  8
0
 10
49.758224487305
 20
132.215606689453
 30
0.0000000000000284
 11
49.82651551310001
 21
132.205447388922
 31
0.0000000000000284
  0
LINE
  5
183
  8
0
 10
49.690322875977
 20
132.228118896484
 30
0.0000000000000284
 11
49.75822255009
 21
132.215608506931
 31
0.0000000000000284
  0
LINE
  5
184
  8
0
 10
49.62289428710901
 20
132.242965698242
 30
0.0000000000000284
 11
49.690321692216
 21
132.228119128535
 31
0.0000000000000284
  0
LINE
  5
185
  8
0
 10
49.556022644043
 20
132.260131835938
 30
0.0000000000000284
 11
49.62289742563
 21
132.242966779014
 31
0.0000000000000284
  0
LINE
  5
186
  8
0
 10
49.489776611328
 20
132.279586791992
 30
0.0000000000000284
 11
49.556019073454
 21
132.260123703776
 31
0.0000000000000284
  0
LINE
  5
187
  8
0
 10
49.42424774169901
 20
132.301330566406
 30
0.0000000000000284
 11
49.489778941971
 21
132.279592641426
 31
0.0000000000000284
  0
LINE
  5
188
  8
0
 10
49.359504699707
 20
132.325317382812
 30
0.0000000000000284
 11
49.424246543354
 21
132.301330526565
 31
0.0000000000000284
  0
LINE
  5
189
  8
0
 10
49.29563140869099
 20
132.351516723633
 30
0.0000000000000284
 11
49.359506741635
 21
132.325309521708
 31
0.0000000000000284
  0
LINE
  5
18A
  8
0
 10
49.232696533203
 20
132.379913330078
 30
0.0000000000000284
 11
49.295629234003
 21
132.351517014094
 31
0.0000000000000284
  0
LINE
  5
18B
  8
0
 10
49.170783996582
 20
132.410461425781
 30
0.0000000000000284
 11
49.232699067149
 21
132.379909836163
 31
0.0000000000000284
  0
LINE
  5
18C
  8
0
 10
49.10995483398401
 20
132.443145751953
 30
0.0000000000000284
 11
49.17077848895801
 21
132.410475297609
 31
0.0000000000000284
  0
LINE
  5
18D
  8
0
 10
49.050300598145
 20
132.477890014648
 30
0.0000000000000284
 11
49.10996035282599
 21
132.443139629575
 31
0.0000000000000284
  0
LINE
  5
18E
  8
0
 10
48.99187469482401
 20
132.514678955078
 30
0.0000000000000284
 11
49.050299451557
 21
132.477890051967
 31
0.0000000000000284
  0
LINE
  5
18F
  8
0
 10
48.93475341796901
 20
132.553466796875
 30
0.0000000000000284
 11
48.991873550866
 21
132.514683217756
 31
0.0000000000000284
  0
LINE
  5
190
  8
0
 10
48.87900543212901
 20
132.594192504883
 30
0.0000000000000284
 11
48.934752870048
 21
132.553460468881
 31
0.0000000000000284
  0
LINE
  5
191
  8
0
 10
48.824699401855
 20
132.636825561523
 30
0.0000000000000284
 11
48.879007709522
 21
132.594193609776
 31
0.0000000000000284
  0
LINE
  5
192
  8
0
 10
48.77188873291
 20
132.681304931641
 30
0.0000000000000284
 11
48.824693190088
 21
132.63682386945
 31
0.0000000000000284
  0
LINE
  5
193
  8
0
 10
48.720657348633
 20
132.727584838867
 30
0.0000000000000284
 11
48.77189502725101
 21
132.681307675155
 31
0.0000000000000284
  0
LINE
  5
194
  8
0
 10
48.67104339599599
 20
132.775604248047
 30
0.0000000000000284
 11
48.720653235146
 21
132.727586132185
 31
0.0000000000000284
  0
LINE
  5
195
  8
0
 10
48.623123168945
 20
132.825302124023
 30
0.0000000000000284
 11
48.671046047644
 21
132.775600280107
 31
0.0000000000000284
  0
LINE
  5
196
  8
0
 10
48.576942443848
 20
132.87663269043
 30
0.0000000000000284
 11
48.623121251494
 21
132.825306349085
 31
0.0000000000000284
  0
LINE
  5
197
  8
0
 10
48.53256225585901
 20
132.92951965332
 30
0.0000000000000284
 11
48.576941960296
 21
132.876629981119
 31
0.0000000000000284
  0
LINE
  5
198
  8
0
 10
48.490036010742
 20
132.983917236328
 30
0.0000000000000284
 11
48.532563723837
 21
132.929527262892
 31
0.0000000000000284
  0
LINE
  5
199
  8
0
 10
48.449409484863
 20
133.039733886719
 30
0.0000000000000284
 11
48.490034525537
 21
132.983908429607
 31
0.0000000000000284
  0
LINE
  5
19A
  8
0
 10
48.41073608398401
 20
133.096923828125
 30
0.0000000000000284
 11
48.44941003860799
 21
133.03972941559
 31
0.0000000000000284
  0
LINE
  5
19B
  8
0
 10
48.374061584473
 20
133.155426025391
 30
0.0000000000000284
 11
48.410738364564
 21
133.096930817095
 31
0.0000000000000284
  0
LINE
  5
19C
  8
0
 10
48.33942413330099
 20
133.215148925781
 30
0.0000000000000284
 11
48.374060030447
 21
133.155422631569
 31
0.0000000000000284
  0
LINE
  5
19D
  8
0
 10
48.30686950683599
 20
133.276031494141
 30
0.0000000000000284
 11
48.339423244784
 21
133.215145290966
 31
0.0000000000000284
  0
LINE
  5
19E
  8
0
 10
48.27643585205099
 20
133.338012695312
 30
0.0000000000000284
 11
48.306868635897
 21
133.276039142414
 31
0.0000000000000284
  0
LINE
  5
19F
  8
0
 10
48.248161315918
 20
133.401000976562
 30
0.0000000000000284
 11
48.276436878338
 21
133.338013928995
 31
0.0000000000000284
  0
LINE
  5
1A0
  8
0
 10
48.22207641601599
 20
133.464920043945
 30
0.0000000000000284
 11
48.24816106048701
 21
133.400994564563
 31
0.0000000000000284
  0
LINE
  5
1A1
  8
0
 10
48.198211669922
 20
133.529708862305
 30
0.0000000000000284
 11
48.22207431088199
 21
133.46492113231
 31
0.0000000000000284
  0
LINE
  5
1A2
  8
0
 10
48.17660522460901
 20
133.595291137695
 30
0.0000000000000284
 11
48.198217424497
 21
133.52971836585
 31
0.0000000000000284
  0
LINE
  5
1A3
  8
0
 10
48.157264709473
 20
133.661560058594
 30
0.0000000000000284
 11
48.176600712621
 21
133.59528038921
 31
0.0000000000000284
  0
LINE
  5
1A4
  8
0
 10
48.14022827148401
 20
133.728469848633
 30
0.0000000000000284
 11
48.15726503481299
 21
133.661562268444
 31
0.0000000000000284
  0
LINE
  5
1A5
  8
0
 10
48.12551116943401
 20
133.795928955078
 30
0.0000000000000284
 11
48.14022838991001
 21
133.728473199113
 31
0.0000000000000284
  0
LINE
  5
1A6
  8
0
 10
48.11312866210901
 20
133.863845825195
 30
0.0000000000000284
 11
48.125508800944
 21
133.795922281752
 31
0.0000000000000284
  0
LINE
  5
1A7
  8
0
 10
48.103103637695
 20
133.932159423828
 30
0.0000000000000284
 11
48.113131941243
 21
133.863849038678
 31
0.0000000000000284
  0
LINE
  5
1A8
  8
0
 10
48.09543609619099
 20
134.000778198242
 30
0.0000000000000284
 11
48.10310061353201
 21
133.932162378161
 31
0.0000000000000284
  0
LINE
  5
1A9
  8
0
 10
48.09014892578099
 20
134.069610595703
 30
0.0000000000000284
 11
48.095440522966
 21
134.000771111461
 31
0.0000000000000284
  0
LINE
  5
1AA
  8
0
 10
48.08723449707
 20
134.138595581055
 30
0.0000000000000284
 11
48.09014686800199
 21
134.069614469966
 31
0.0000000000000284
  0
LINE
  5
1AB
  8
0
 10
48.086708068848
 20
134.207641601562
 30
0.0000000000000284
 11
48.087237742799
 21
134.138601069721
 31
0.0000000000000284
  0
LINE
  5
1AC
  8
0
 10
48.08856201171901
 20
134.276657104492
 30
0.0000000000000284
 11
48.086708357467
 21
134.207639428804
 31
0.0000000000000284
  0
LINE
  5
1AD
  8
0
 10
48.09279632568401
 20
134.345565795898
 30
0.0000000000000284
 11
48.088561552264
 21
134.276653226033
 31
0.0000000000000284
  0
LINE
  5
1AE
  8
0
 10
48.099403381348
 20
134.414291381836
 30
0.0000000000000284
 11
48.09279253541899
 21
134.345566042204
 31
0.0000000000000284
  0
LINE
  5
1AF
  8
0
 10
48.10838317871099
 20
134.482757568359
 30
0.0000000000000284
 11
48.099404138544
 21
134.414301360247
 31
0.0000000000000284
  0
LINE
  5
1B0
  8
0
 10
48.11972045898401
 20
134.550857543945
 30
0.0000000000000284
 11
48.108383925071
 21
134.48275204791
 31
0.0000000000000284
  0
LINE
  5
1B1
  8
0
 10
48.13339996337901
 20
134.618530273438
 30
0.0000000000000284
 11
48.119719445681
 21
134.550856652085
 31
0.0000000000000284
  0
LINE
  5
1B2
  8
0
 10
48.149406433105
 20
134.685684204102
 30
0.0000000000000284
 11
48.133398234954
 21
134.618523105366
 31
0.0000000000000284
  0
LINE
  5
1B3
  8
0
 10
48.167724609375
 20
134.752258300781
 30
0.0000000000000284
 11
48.149407808042
 21
134.685689761813
 31
0.0000000000000284
  0
LINE
  5
1B4
  8
0
 10
48.18833160400401
 20
134.818161010742
 30
0.0000000000000284
 11
48.167728027968
 21
134.752264362527
 31
0.0000000000000284
  0
LINE
  5
1B5
  8
0
 10
48.21119689941401
 20
134.88330078125
 30
0.0000000000000284
 11
48.188331102346
 21
134.818154554069
 31
0.0000000000000284
  0
LINE
  5
1B6
  8
0
 10
48.236297607422
 20
134.947616577148
 30
0.0000000000000284
 11
48.21119683892501
 21
134.883298406992
 31
0.0000000000000284
  0
LINE
  5
1B7
  8
0
 10
48.26360321044901
 20
135.011032104492
 30
0.0000000000000284
 11
48.23629738358299
 21
134.947618640539
 31
0.0000000000000284
  0
LINE
  5
1B8
  8
0
 10
48.293083190918
 20
135.073471069336
 30
0.0000000000000284
 11
48.263604846552
 21
135.011037882609
 31
0.0000000000000284
  0
LINE
  5
1B9
  8
0
 10
48.324699401855
 20
135.134841918945
 30
0.0000000000000284
 11
48.29308366989
 21
135.073463412253
 31
0.0000000000000284
  0
LINE
  5
1BA
  8
0
 10
48.35841369628901
 20
135.195098876953
 30
0.0000000000000284
 11
48.32469825379
 21
135.134848196222
 31
0.0000000000000284
  0
LINE
  5
1BB
  8
0
 10
48.39418792724599
 20
135.254150390625
 30
0.0000000000000284
 11
48.358412953543
 21
135.19509933773
 31
0.0000000000000284
  0
LINE
  5
1BC
  8
0
 10
48.43197631835901
 20
135.311920166016
 30
0.0000000000000284
 11
48.39418444716399
 21
135.254139113213
 31
0.0000000000000284
  0
LINE
  5
1BD
  8
0
 10
48.47174072265599
 20
135.368362426758
 30
0.0000000000000284
 11
48.43197699125599
 21
135.31192023282
 31
0.0000000000000284
  0
LINE
  5
1BE
  8
0
 10
48.513427734375
 20
135.423400878906
 30
0.0000000000000284
 11
48.47173952996
 21
135.368364807061
 31
0.0000000000000284
  0
LINE
  5
1BF
  8
0
 10
48.556991577148
 20
135.476974487305
 30
0.0000000000000284
 11
48.51342858034
 21
135.42341012508
 31
0.0000000000000284
  0
LINE
  5
1C0
  8
0
 10
48.602378845215
 20
135.528991699219
 30
0.0000000000000284
 11
48.556992970859
 21
135.476962880278
 31
0.0000000000000284
  0
LINE
  5
1C1
  8
0
 10
48.649536132812
 20
135.579437255859
 30
0.0000000000000284
 11
48.602381468114
 21
135.529005983928
 31
0.0000000000000284
  0
LINE
  5
1C2
  8
0
 10
48.698402404785
 20
135.628204345703
 30
0.0000000000000284
 11
48.649535144849
 21
135.579430720682
 31
0.0000000000000284
  0
LINE
  5
1C3
  8
0
 10
48.74892425537099
 20
135.675262451172
 30
0.0000000000000284
 11
48.69840263623399
 21
135.628204597511
 31
0.0000000000000284
  0
LINE
  5
1C4
  8
0
 10
48.80104064941401
 20
135.720550537109
 30
0.0000000000000284
 11
48.748924878645
 21
135.675264534542
 31
0.0000000000000284
  0
LINE
  5
1C5
  8
0
 10
51.86521911621099
 20
138.291702270508
 30
0.0000000000000284
 11
48.80104134373499
 21
135.720551831762
 31
0.0000000000000284
  0
LINE
  5
1C6
  8
0
 10
51.91886138916
 20
138.335159301758
 30
0.0000000000000284
 11
51.865213574107
 21
138.291699118469
 31
0.0000000000000284
  0
LINE
  5
1C7
  8
0
 10
51.97397613525401
 20
138.376739501953
 30
0.0000000000000284
 11
51.918860209032
 21
138.335156930265
 31
0.0000000000000284
  0
LINE
  5
1C8
  8
0
 10
52.03049468994099
 20
138.416397094727
 30
0.0000000000000284
 11
51.973976335242
 21
138.376741689376
 31
0.0000000000000284
  0
LINE
  5
1C9
  8
0
 10
52.088348388672
 20
138.454071044922
 30
0.0000000000000284
 11
52.03049495948601
 21
138.416390064004
 31
0.0000000000000284
  0
LINE
  5
1CA
  8
0
 10
52.147468566895
 20
138.48974609375
 30
0.0000000000000284
 11
52.088349008248
 21
138.454084442403
 31
0.0000000000000284
  0
LINE
  5
1CB
  8
0
 10
52.20778656005901
 20
138.523345947266
 30
0.0000000000000284
 11
52.147471325845
 21
138.489746124152
 31
0.0000000000000284
  0
LINE
  5
1CC
  8
0
 10
52.26922607421901
 20
138.554840087891
 30
0.0000000000000284
 11
52.207787043244
 21
138.523342134556
 31
0.0000000000000284
  0
LINE
  5
1CD
  8
0
 10
52.33171844482401
 20
138.584197998047
 30
0.0000000000000284
 11
52.269228835142
 21
138.554839451196
 31
0.0000000000000284
  0
LINE
  5
1CE
  8
0
 10
52.395179748535
 20
138.611373901367
 30
0.0000000000000284
 11
52.33171403019399
 21
138.584189748136
 31
0.0000000000000284
  0
LINE
  5
1CF
  8
0
 10
52.459548950195
 20
138.636352539062
 30
0.0000000000000284
 11
52.39518275649201
 21
138.61137517532
 31
0.0000000000000284
  0
LINE
  5
1D0
  8
0
 10
52.52473449707
 20
138.659103393555
 30
0.0000000000000284
 11
52.459544534413
 21
138.636362585297
 31
0.0000000000000284
  0
LINE
  5
1D1
  8
0
 10
52.59067535400401
 20
138.679580688477
 30
0.0000000000000284
 11
52.524739310504
 21
138.659103536355
 31
0.0000000000000284
  0
LINE
  5
1D2
  8
0
 10
52.657279968262
 20
138.697769165039
 30
0.0000000000000284
 11
52.590676421148
 21
138.679580072063
 31
0.0000000000000284
  0
LINE
  5
1D3
  8
0
 10
52.72446441650401
 20
138.713638305664
 30
0.0000000000000284
 11
52.65727273848201
 21
138.697758948119
 31
0.0000000000000284
  0
LINE
  5
1D4
  8
0
 10
52.79216766357401
 20
138.727188110352
 30
0.0000000000000284
 11
52.724467928237
 21
138.713637411968
 31
0.0000000000000284
  0
LINE
  5
1D5
  8
0
 10
52.860298156738
 20
138.738403320312
 30
0.0000000000000284
 11
52.79217104313901
 21
138.727197429713
 31
0.0000000000000284
  0
LINE
  5
1D6
  8
0
 10
52.92877197265599
 20
138.747253417969
 30
0.0000000000000284
 11
52.860298669165
 21
138.738405689426
 31
0.0000000000000284
  0
LINE
  5
1D7
  8
0
 10
52.997505187988
 20
138.753723144531
 30
0.0000000000000284
 11
52.928767295534
 21
138.74724412205
 31
0.0000000000000284
  0
LINE
  5
1D8
  8
0
 10
53.06642913818401
 20
138.757827758789
 30
0.0000000000000284
 11
52.997508573011
 21
138.753725163543
 31
0.0000000000000284
  0
LINE
  5
1D9
  8
0
 10
53.135444641113
 20
138.759552001953
 30
0.0000000000000284
 11
53.066423537163
 21
138.757830723083
 31
0.0000000000000284
  0
LINE
  5
1DA
  8
0
 10
53.20449066162099
 20
138.758895874023
 30
0.0000000000000284
 11
53.135451272647
 21
138.759557962809
 31
0.0000000000000284
  0
LINE
  5
1DB
  8
0
 10
53.27346038818401
 20
138.755844116211
 30
0.0000000000000284
 11
53.204484989731
 21
138.758888783629
 31
0.0000000000000284
  0
LINE
  5
1DC
  8
0
 10
53.342292785645
 20
138.750427246094
 30
0.0000000000000284
 11
53.273463576998
 21
138.755850863756
 31
0.0000000000000284
  0
LINE
  5
1DD
  8
0
 10
53.41089630127
 20
138.742630004883
 30
0.0000000000000284
 11
53.34229530749801
 21
138.750426109362
 31
0.0000000000000284
  0
LINE
  5
1DE
  8
0
 10
53.47918701171901
 20
138.732467651367
 30
0.0000000000000284
 11
53.410895985924
 21
138.742626951899
 31
0.0000000000000284
  0
LINE
  5
1DF
  8
0
 10
53.547080993652
 20
138.719955444336
 30
0.0000000000000284
 11
53.47918131953899
 21
138.732465833889
 31
0.0000000000000284
  0
LINE
  5
1E0
  8
0
 10
53.61450958252
 20
138.705108642578
 30
0.0000000000000284
 11
53.547082177413
 21
138.719955212285
 31
0.0000000000000284
  0
LINE
  5
1E1
  8
0
 10
53.68138885498
 20
138.687942504883
 30
0.0000000000000284
 11
53.61451407339401
 21
138.705107561806
 31
0.0000000000000284
  0
LINE
  5
1E2
  8
0
 10
53.74762725830099
 20
138.668472290039
 30
0.0000000000000284
 11
53.681384796175
 21
138.687935378256
 31
0.0000000000000284
  0
LINE
  5
1E3
  8
0
 10
53.81315612793
 20
138.646743774414
 30
0.0000000000000284
 11
53.74762492765799
 21
138.668481699394
 31
0.0000000000000284
  0
LINE
  5
1E4
  8
0
 10
53.877899169922
 20
138.622756958008
 30
0.0000000000000284
 11
53.813157326275
 21
138.646743814255
 31
0.0000000000000284
  0
LINE
  5
1E5
  8
0
 10
53.941780090332
 20
138.596542358398
 30
0.0000000000000284
 11
53.877904757388
 21
138.622749560323
 31
0.0000000000000284
  0
LINE
  5
1E6
  8
0
 10
54.00470733642599
 20
138.568145751953
 30
0.0000000000000284
 11
53.941774635626
 21
138.596542067938
 31
0.0000000000000284
  0
LINE
  5
1E7
  8
0
 10
54.06662750244099
 20
138.53759765625
 30
0.0000000000000284
 11
54.00471243187501
 21
138.568149245868
 31
0.0000000000000284
  0
LINE
  5
1E8
  8
0
 10
54.127449035645
 20
138.504928588867
 30
0.0000000000000284
 11
54.066625380671
 21
138.537599043212
 31
0.0000000000000284
  0
LINE
  5
1E9
  8
0
 10
54.18711090087901
 20
138.470184326172
 30
0.0000000000000284
 11
54.127451146197
 21
138.504934711245
 31
0.0000000000000284
  0
LINE
  5
1EA
  8
0
 10
54.245529174805
 20
138.433395385742
 30
0.0000000000000284
 11
54.187104418072
 21
138.470184288854
 31
0.0000000000000284
  0
LINE
  5
1EB
  8
0
 10
54.30265045166
 20
138.394607543945
 30
0.0000000000000284
 11
54.245530318763
 21
138.433391123064
 31
0.0000000000000284
  0
LINE
  5
1EC
  8
0
 10
54.3583984375
 20
138.353881835938
 30
0.0000000000000284
 11
54.30265099958
 21
138.394613871939
 31
0.0000000000000284
  0
LINE
  5
1ED
  8
0
 10
54.412712097168
 20
138.311248779297
 30
0.0000000000000284
 11
54.358403789501
 21
138.353880731044
 31
0.0000000000000284
  0
LINE
  5
1EE
  8
0
 10
54.46551513671901
 20
138.266754150391
 30
0.0000000000000284
 11
54.41271067954099
 21
138.311235212582
 31
0.0000000000000284
  0
LINE
  5
1EF
  8
0
 10
54.51675415039099
 20
138.220489501953
 30
0.0000000000000284
 11
54.46551647177201
 21
138.266766665665
 31
0.0000000000000284
  0
LINE
  5
1F0
  8
0
 10
54.566360473633
 20
138.172470092773
 30
0.0000000000000284
 11
54.516750634483
 21
138.220488208636
 31
0.0000000000000284
  0
LINE
  5
1F1
  8
0
 10
54.61428070068401
 20
138.122756958008
 30
0.0000000000000284
 11
54.56635782198499
 21
138.172458801924
 31
0.0000000000000284
  0
LINE
  5
1F2
  8
0
 10
54.66046142578099
 20
138.071441650391
 30
0.0000000000000284
 11
54.61428261813499
 21
138.122767991735
 31
0.0000000000000284
  0
LINE
  5
1F3
  8
0
 10
54.70484161377
 20
138.0185546875
 30
0.0000000000000284
 11
54.66046190933299
 21
138.071444359701
 31
0.0000000000000284
  0
LINE
  5
1F4
  8
0
 10
54.747367858887
 20
137.964157104492
 30
0.0000000000000284
 11
54.70484014579201
 21
138.018547077928
 31
0.0000000000000284
  0
LINE
  5
1F5
  8
0
 10
54.78799438476599
 20
137.908340454102
 30
0.0000000000000284
 11
54.74736934409199
 21
137.964165911213
 31
0.0000000000000284
  0
LINE
  5
1F6
  8
0
 10
54.826667785645
 20
137.851135253906
 30
0.0000000000000284
 11
54.787993831021
 21
137.908329666441
 31
0.0000000000000284
  0
LINE
  5
1F7
  8
0
 10
54.86334228515599
 20
137.79264831543
 30
0.0000000000000284
 11
54.82666550506499
 21
137.851143523726
 31
0.0000000000000284
  0
LINE
  5
1F8
  8
0
 10
54.897979736328
 20
137.73291015625
 30
0.0000000000000284
 11
54.86334383918199
 21
137.792636450462
 31
0.0000000000000284
  0
LINE
  5
1F9
  8
0
 10
54.930534362793
 20
137.672027587891
 30
0.0000000000000284
 11
54.897980624844
 21
137.732913791065
 31
0.0000000000000284
  0
LINE
  5
1FA
  8
0
 10
54.960968017578
 20
137.610061645508
 30
0.0000000000000284
 11
54.930535233732
 21
137.672035198406
 31
0.0000000000000284
  0
LINE
  5
1FB
  8
0
 10
54.98924255371099
 20
137.547073364258
 30
0.0000000000000284
 11
54.960966991291
 21
137.610060411825
 31
0.0000000000000284
  0
LINE
  5
1FC
  8
0
 10
55.015327453613
 20
137.483139038086
 30
0.0000000000000284
 11
54.989242809141
 21
137.547064517468
 31
0.0000000000000284
  0
LINE
  5
1FD
  8
0
 10
55.039192199707
 20
137.418350219727
 30
0.0000000000000284
 11
55.015329558747
 21
137.483137949721
 31
0.0000000000000284
  0
LINE
  5
1FE
  8
0
 10
55.06080627441401
 20
137.352783203125
 30
0.0000000000000284
 11
55.03919407452599
 21
137.41835597497
 31
0.0000000000000284
  0
LINE
  5
1FF
  8
0
 10
55.08013916015599
 20
137.286499023438
 30
0.0000000000000284
 11
55.060803157008
 21
137.352778692822
 31
0.0000000000000284
  0
LINE
  5
200
  8
0
 10
55.097175598145
 20
137.219604492188
 30
0.0000000000000284
 11
55.080138834815
 21
137.286512072376
 31
0.0000000000000284
  0
LINE
  5
201
  8
0
 10
55.111892700195
 20
137.152145385742
 30
0.0000000000000284
 11
55.097175479719
 21
137.219601141708
 31
0.0000000000000284
  0
LINE
  5
202
  8
0
 10
55.12427520752
 20
137.084213256836
 30
0.0000000000000284
 11
55.111895068685
 21
137.152136800279
 31
0.0000000000000284
  0
LINE
  5
203
  8
0
 10
55.13430023193401
 20
137.015914916992
 30
0.0000000000000284
 11
55.12427192838599
 21
137.084225302143
 31
0.0000000000000284
  0
LINE
  5
204
  8
0
 10
55.141967773438
 20
136.947296142578
 30
0.0000000000000284
 11
55.134303256097
 21
137.015911962659
 31
0.0000000000000284
  0
LINE
  5
205
  8
0
 10
55.147254943848
 20
136.878448486328
 30
0.0000000000000284
 11
55.141963346663
 21
136.94728797057
 31
0.0000000000000284
  0
LINE
  5
206
  8
0
 10
55.15016937255901
 20
136.809463500977
 30
0.0000000000000284
 11
55.147257001627
 21
136.878444612065
 31
0.0000000000000284
  0
LINE
  5
207
  8
0
 10
55.15069580078099
 20
136.740432739258
 30
0.0000000000000284
 11
55.15016612683
 21
136.809473271099
 31
0.0000000000000284
  0
LINE
  5
208
  8
0
 10
55.14884185791
 20
136.671417236328
 30
0.0000000000000284
 11
55.150695512162
 21
136.740434912016
 31
0.0000000000000284
  0
LINE
  5
209
  8
0
 10
55.144607543945
 20
136.602493286133
 30
0.0000000000000284
 11
55.14884231736499
 21
136.671405855999
 31
0.0000000000000284
  0
LINE
  5
20A
  8
0
 10
55.13800048828099
 20
136.533767700195
 30
0.0000000000000284
 11
55.144611334209
 21
136.602493039827
 31
0.0000000000000284
  0
LINE
  5
20B
  8
0
 10
55.129020690918
 20
136.465316772461
 30
0.0000000000000284
 11
55.137999731085
 21
136.533772980573
 31
0.0000000000000284
  0
LINE
  5
20C
  8
0
 10
55.117683410645
 20
136.397216796875
 30
0.0000000000000284
 11
55.129019944558
 21
136.465322292911
 31
0.0000000000000284
  0
LINE
  5
20D
  8
0
 10
55.10400390625
 20
136.329544067383
 30
0.0000000000000284
 11
55.11768442394801
 21
136.397217688735
 31
0.0000000000000284
  0
LINE
  5
20E
  8
0
 10
55.087997436523
 20
136.26237487793
 30
0.0000000000000284
 11
55.104005634675
 21
136.329535976665
 31
0.0000000000000284
  0
LINE
  5
20F
  8
0
 10
55.06967926025401
 20
136.195816040039
 30
0.0000000000000284
 11
55.08799606158701
 21
136.262384579007
 31
0.0000000000000284
  0
LINE
  5
210
  8
0
 10
55.049072265625
 20
136.129913330078
 30
0.0000000000000284
 11
55.069675841661
 21
136.195809978293
 31
0.0000000000000284
  0
LINE
  5
211
  8
0
 10
55.026206970215
 20
136.06477355957
 30
0.0000000000000284
 11
55.04907276728299
 21
136.129919786751
 31
0.0000000000000284
  0
LINE
  5
212
  8
0
 10
55.001106262207
 20
136.000442504883
 30
0.0000000000000284
 11
55.026207030704
 21
136.064760675039
 31
0.0000000000000284
  0
LINE
  5
213
  8
0
 10
54.97380065918
 20
135.937042236328
 30
0.0000000000000284
 11
55.001106486046
 21
136.000455700282
 31
0.0000000000000284
  0
LINE
  5
214
  8
0
 10
54.944328308105
 20
135.874603271484
 30
0.0000000000000284
 11
54.973806652471
 21
135.937036458211
 31
0.0000000000000284
  0
LINE
  5
215
  8
0
 10
54.912712097168
 20
135.813217163086
 30
0.0000000000000284
 11
54.944327829133
 21
135.874595669778
 31
0.0000000000000284
  0
LINE
  5
216
  8
0
 10
54.87899017334
 20
135.752975463867
 30
0.0000000000000284
 11
54.912705615839
 21
135.813226144598
 31
0.0000000000000284
  0
LINE
  5
217
  8
0
 10
54.843215942383
 20
135.693923950195
 30
0.0000000000000284
 11
54.878990916086
 21
135.75297500309
 31
0.0000000000000284
  0
LINE
  5
218
  8
0
 10
54.80542755127
 20
135.636138916016
 30
0.0000000000000284
 11
54.843219422465
 21
135.693919968818
 31
0.0000000000000284
  0
LINE
  5
219
  8
0
 10
54.765663146973
 20
135.579696655273
 30
0.0000000000000284
 11
54.805426878373
 21
135.636138849212
 31
0.0000000000000284
  0
LINE
  5
21A
  8
0
 10
54.72397613525401
 20
135.524658203125
 30
0.0000000000000284
 11
54.765664339669
 21
135.57969427497
 31
0.0000000000000284
  0
LINE
  5
21B
  8
0
 10
54.68041229248
 20
135.471099853516
 30
0.0000000000000284
 11
54.723975289289
 21
135.52466421574
 31
0.0000000000000284
  0
LINE
  5
21C
  8
0
 10
54.63502502441401
 20
135.419067382812
 30
0.0000000000000284
 11
54.68041089877001
 21
135.471096201754
 31
0.0000000000000284
  0
LINE
  5
21D
  8
0
 10
54.58786773681599
 20
135.368637084961
 30
0.0000000000000284
 11
54.635022401515
 21
135.419068356892
 31
0.0000000000000284
  0
LINE
  5
21E
  8
0
 10
54.53900146484401
 20
135.319869995117
 30
0.0000000000000284
 11
54.58786872477999
 21
135.368643620139
 31
0.0000000000000284
  0
LINE
  5
21F
  8
0
 10
54.488479614258
 20
135.272811889648
 30
0.0000000000000284
 11
54.539001233395
 21
135.31986974331
 31
0.0000000000000284
  0
LINE
  5
220
  8
0
 10
54.436363220215
 20
135.227523803711
 30
0.0000000000000284
 11
54.48847899098401
 21
135.272809806278
 31
0.0000000000000284
  0
LINE
  5
221
  8
0
 10
51.372192382812
 20
132.656372070312
 30
0.0000000000000284
 11
54.436370155288
 21
135.227522509059
 31
0.0000000000000284
  0
LINE
  5
222
  8
0
 10
51.31854248046901
 20
132.612915039062
 30
0.0000000000000284
 11
51.372190295522
 21
132.656375222351
 31
0.0000000000000284
  0
LINE
  5
223
  8
0
 10
51.263427734375
 20
132.571334838867
 30
0.0000000000000284
 11
51.318543660597
 21
132.612917410555
 31
0.0000000000000284
  0
LINE
  5
224
  8
0
 10
51.206909179688
 20
132.531677246094
 30
0.0000000000000284
 11
51.26342753438701
 21
132.571332651444
 31
0.0000000000000284
  0
LINE
  5
225
  8
0
 10
51.149055480957
 20
132.493988037109
 30
0.0000000000000284
 11
51.206908910143
 21
132.531669018027
 31
0.0000000000000284
  0
LINE
  5
226
  8
0
 10
51.08993530273401
 20
132.45832824707
 30
0.0000000000000284
 11
51.149054861381
 21
132.493989898418
 31
0.0000000000000284
  0
LINE
  5
227
  8
0
 10
51.02961730957
 20
132.424728393555
 30
0.0000000000000284
 11
51.08993254378299
 21
132.458328216668
 31
0.0000000000000284
  0
LINE
  5
228
  8
0
 10
50.96817779541
 20
132.39323425293
 30
0.0000000000000284
 11
51.02961682638499
 21
132.424732206265
 31
0.0000000000000284
  0
LINE
  5
229
  8
0
 10
50.90569305419901
 20
132.363876342773
 30
0.0000000000000284
 11
50.968182663882
 21
132.393234889624
 31
0.0000000000000284
  0
LINE
  5
22A
  8
0
 10
50.84222412109401
 20
132.336685180664
 30
0.0000000000000284
 11
50.905689839435
 21
132.363869333895
 31
0.0000000000000284
  0
LINE
  5
22B
  8
0
 10
50.77785491943401
 20
132.311706542969
 30
0.0000000000000284
 11
50.842221113137
 21
132.336683906711
 31
0.0000000000000284
  0
LINE
  5
22C
  8
0
 10
50.71266937255901
 20
132.288970947266
 30
0.0000000000000284
 11
50.77785933521599
 21
132.311711755523
 31
0.0000000000000284
  0
LINE
  5
22D
  8
0
 10
50.646728515625
 20
132.268493652344
 30
0.0000000000000284
 11
50.712664559125
 21
132.288970804465
 31
0.0000000000000284
  0
LINE
  5
22E
  8
0
 10
50.580131530762
 20
132.250305175781
 30
0.0000000000000284
 11
50.64673507787499
 21
132.268494268758
 31
0.0000000000000284
  0
LINE
  5
22F
  8
0
 10
50.512939453125
 20
132.234420776367
 30
0.0000000000000284
 11
50.580131131147
 21
132.250300133913
 31
0.0000000000000284
  0
LINE
  5
230
  8
0
 10
50.445236206055
 20
132.22087097168
 30
0.0000000000000284
 11
50.512935941392
 21
132.234421670064
 31
0.0000000000000284
  0
LINE
  5
231
  8
0
 10
50.377113342285
 20
132.209671020508
 30
0.0000000000000284
 11
50.445240455884
 21
132.220876911107
 31
0.0000000000000284
  0
LINE
  5
232
  8
0
 10
50.308639526367
 20
132.200820922852
 30
0.0000000000000284
 11
50.377112829859
 21
132.209668651394
 31
0.0000000000000284
  0
LINE
  5
233
  8
0
 10
50.23989868164099
 20
132.1943359375
 30
0.0000000000000284
 11
50.308636574095
 21
132.200814959981
 31
0.0000000000000284
  0
LINE
  5
234
  8
0
 10
50.170974731445
 20
132.190246582031
 30
0.0000000000000284
 11
50.239895296618
 21
132.194349177277
 31
0.0000000000000284
  0
LINE
  5
235
  8
0
 10
50.10195922851599
 20
132.188522338867
 30
0.0000000000000284
 11
50.170980332466
 21
132.190243617738
 31
0.0000000000000284
  0
LINE
  5
236
  8
0
 10
194.032913208008
 20
125.189178466797
 30
0.0000000000000284
 11
194.101952596982
 21
125.188516378011
 31
0.0000000000000284
  0
LINE
  5
237
  8
0
 10
193.963943481445
 20
125.192230224609
 30
0.0000000000000284
 11
194.032918879898
 21
125.189185557191
 31
0.0000000000000284
  0
LINE
  5
238
  8
0
 10
193.895111083984
 20
125.197647094727
 30
0.0000000000000284
 11
193.963940292631
 21
125.192223477064
 31
0.0000000000000284
  0
LINE
  5
239
  8
0
 10
193.826507568359
 20
125.205444335938
 30
0.0000000000000284
 11
193.89510856213
 21
125.197648231458
 31
0.0000000000000284
  0
LINE
  5
23A
  8
0
 10
193.758224487305
 20
125.215606689453
 30
0.0000000000000284
 11
193.8265155131
 21
125.205447388922
 31
0.0000000000000284
  0
LINE
  5
23B
  8
0
 10
193.690322875977
 20
125.228118896484
 30
0.0000000000000284
 11
193.75822255009
 21
125.215608506931
 31
0.0000000000000284
  0
LINE
  5
23C
  8
0
 10
193.622894287109
 20
125.242965698242
 30
0.0000000000000284
 11
193.690321692216
 21
125.228119128535
 31
0.0000000000000284
  0
LINE
  5
23D
  8
0
 10
193.556015014648
 20
125.260131835938
 30
0.0000000000000284
 11
193.622889796235
 21
125.242966779014
 31
0.0000000000000284
  0
LINE
  5
23E
  8
0
 10
193.489776611328
 20
125.279586791992
 30
0.0000000000000284
 11
193.556019073454
 21
125.260123703776
 31
0.0000000000000284
  0
LINE
  5
23F
  8
0
 10
193.424240112305
 20
125.301330566406
 30
0.0000000000000284
 11
193.489771312576
 21
125.279592641426
 31
0.0000000000000284
  0
LINE
  5
240
  8
0
 10
193.359497070312
 20
125.325317382812
 30
0.0000000000000284
 11
193.424238913959
 21
125.301330526565
 31
0.0000000000000284
  0
LINE
  5
241
  8
0
 10
193.295623779297
 20
125.351516723633
 30
0.0000000000000284
 11
193.359499112241
 21
125.325309521708
 31
0.0000000000000284
  0
LINE
  5
242
  8
0
 10
193.232696533203
 20
125.379913330078
 30
0.0000000000000284
 11
193.295629234003
 21
125.351517014094
 31
0.0000000000000284
  0
LINE
  5
243
  8
0
 10
193.170776367188
 20
125.410461425781
 30
0.0000000000000284
 11
193.232691437754
 21
125.379909836163
 31
0.0000000000000284
  0
LINE
  5
244
  8
0
 10
193.109954833984
 20
125.443145751953
 30
0.0000000000000284
 11
193.170778488958
 21
125.410475297609
 31
0.0000000000000284
  0
LINE
  5
245
  8
0
 10
193.05029296875
 20
125.477890014648
 30
0.0000000000000284
 11
193.109952723432
 21
125.443139629575
 31
0.0000000000000284
  0
LINE
  5
246
  8
0
 10
192.99186706543
 20
125.514678955078
 30
0.0000000000000284
 11
193.050291822163
 21
125.477890051967
 31
0.0000000000000284
  0
LINE
  5
247
  8
0
 10
192.934753417969
 20
125.553466796875
 30
0.0000000000000284
 11
192.991873550866
 21
125.514683217756
 31
0.0000000000000284
  0
LINE
  5
248
  8
0
 10
192.878997802734
 20
125.594192504883
 30
0.0000000000000284
 11
192.934745240654
 21
125.553460468881
 31
0.0000000000000284
  0
LINE
  5
249
  8
0
 10
192.824691772461
 20
125.636825561523
 30
0.0000000000000284
 11
192.879000080128
 21
125.594193609776
 31
0.0000000000000284
  0
LINE
  5
24A
  8
0
 10
192.771896362305
 20
125.681304931641
 30
0.0000000000000284
 11
192.824700819482
 21
125.63682386945
 31
0.0000000000000284
  0
LINE
  5
24B
  8
0
 10
192.720657348633
 20
125.727584838867
 30
0.0000000000000284
 11
192.771895027251
 21
125.681307675155
 31
0.0000000000000284
  0
LINE
  5
24C
  8
0
 10
192.671051025391
 20
125.775604248047
 30
0.0000000000000284
 11
192.72066086454
 21
125.727586132185
 31
0.0000000000000284
  0
LINE
  5
24D
  8
0
 10
192.623123168945
 20
125.825302124023
 30
0.0000000000000284
 11
192.671046047644
 21
125.775600280107
 31
0.0000000000000284
  0
LINE
  5
24E
  8
0
 10
192.576950073242
 20
125.87663269043
 30
0.0000000000000284
 11
192.623128880889
 21
125.825306349085
 31
0.0000000000000284
  0
LINE
  5
24F
  8
0
 10
192.532562255859
 20
125.92951965332
 30
0.0000000000000284
 11
192.576941960296
 21
125.876629981119
 31
0.0000000000000284
  0
LINE
  5
250
  8
0
 10
192.490036010742
 20
125.983917236328
 30
0.0000000000000284
 11
192.532563723837
 21
125.929527262892
 31
0.0000000000000284
  0
LINE
  5
251
  8
0
 10
192.449417114258
 20
126.039733886719
 30
0.0000000000000284
 11
192.490042154931
 21
125.983908429607
 31
0.0000000000000284
  0
LINE
  5
252
  8
0
 10
192.410736083984
 20
126.096923828125
 30
0.0000000000000284
 11
192.449410038608
 21
126.03972941559
 31
0.0000000000000284
  0
LINE
  5
253
  8
0
 10
192.374053955078
 20
126.155426025391
 30
0.0000000000000284
 11
192.410730735169
 21
126.096930817095
 31
0.0000000000000284
  0
LINE
  5
254
  8
0
 10
192.339416503906
 20
126.215148925781
 30
0.0000000000000284
 11
192.374052401053
 21
126.155422631569
 31
0.0000000000000284
  0
LINE
  5
255
  8
0
 10
192.306869506836
 20
126.276031494141
 30
0.0000000000000284
 11
192.339423244785
 21
126.215145290966
 31
0.0000000000000284
  0
LINE
  5
256
  8
0
 10
192.276443481445
 20
126.338012695312
 30
0.0000000000000284
 11
192.306876265291
 21
126.276039142414
 31
0.0000000000000284
  0
LINE
  5
257
  8
0
 10
192.248168945312
 20
126.401000976562
 30
0.0000000000000284
 11
192.276444507732
 21
126.338013928995
 31
0.0000000000000284
  0
LINE
  5
258
  8
0
 10
192.222076416016
 20
126.464920043945
 30
0.0000000000000284
 11
192.248161060487
 21
126.400994564563
 31
0.0000000000000284
  0
LINE
  5
259
  8
0
 10
192.198211669922
 20
126.529708862305
 30
0.0000000000000284
 11
192.222074310882
 21
126.46492113231
 31
0.0000000000000284
  0
LINE
  5
25A
  8
0
 10
192.176605224609
 20
126.595291137695
 30
0.0000000000000284
 11
192.198217424497
 21
126.52971836585
 31
0.0000000000000284
  0
LINE
  5
25B
  8
0
 10
192.157272338867
 20
126.661560058594
 30
0.0000000000000284
 11
192.176608342016
 21
126.59528038921
 31
0.0000000000000284
  0
LINE
  5
25C
  8
0
 10
192.140228271484
 20
126.728469848633
 30
0.0000000000000284
 11
192.157265034814
 21
126.661562268444
 31
0.0000000000000284
  0
LINE
  5
25D
  8
0
 10
192.125518798828
 20
126.795928955078
 30
0.0000000000000284
 11
192.140236019305
 21
126.728473199113
 31
0.0000000000000284
  0
LINE
  5
25E
  8
0
 10
192.113128662109
 20
126.863845825195
 30
0.0000000000000284
 11
192.125508800944
 21
126.795922281752
 31
0.0000000000000284
  0
LINE
  5
25F
  8
0
 10
192.103103637695
 20
126.932159423828
 30
0.0000000000000284
 11
192.113131941243
 21
126.863849038678
 31
0.0000000000000284
  0
LINE
  5
260
  8
0
 10
192.095443725586
 20
127.000778198242
 30
0.0000000000000284
 11
192.103108242927
 21
126.932162378161
 31
0.0000000000000284
  0
LINE
  5
261
  8
0
 10
192.090148925781
 20
127.069610595703
 30
0.0000000000000284
 11
192.095440522966
 21
127.000771111461
 31
0.0000000000000284
  0
LINE
  5
262
  8
0
 10
192.08723449707
 20
127.138595581055
 30
0.0000000000000284
 11
192.090146868002
 21
127.069614469966
 31
0.0000000000000284
  0
LINE
  5
263
  8
0
 10
192.086700439453
 20
127.207641601562
 30
0.0000000000000284
 11
192.087230113404
 21
127.138601069721
 31
0.0000000000000284
  0
LINE
  5
264
  8
0
 10
192.088562011719
 20
127.276657104492
 30
0.0000000000000284
 11
192.086708357467
 21
127.207639428804
 31
0.0000000000000284
  0
LINE
  5
265
  8
0
 10
192.092788696289
 20
127.345565795898
 30
0.0000000000000284
 11
192.088553922869
 21
127.276653226033
 31
0.0000000000000284
  0
LINE
  5
266
  8
0
 10
192.099411010742
 20
127.414291381836
 30
0.0000000000000284
 11
192.092800164814
 21
127.345566042204
 31
0.0000000000000284
  0
LINE
  5
267
  8
0
 10
192.108383178711
 20
127.482757568359
 30
0.0000000000000284
 11
192.099404138544
 21
127.414301360247
 31
0.0000000000000284
  0
LINE
  5
268
  8
0
 10
192.119720458984
 20
127.550857543945
 30
0.0000000000000284
 11
192.108383925071
 21
127.48275204791
 31
0.0000000000000284
  0
LINE
  5
269
  8
0
 10
192.133407592773
 20
127.618530273438
 30
0.0000000000000284
 11
192.119727075075
 21
127.550856652085
 31
0.0000000000000284
  0
LINE
  5
26A
  8
0
 10
192.1494140625
 20
127.685684204102
 30
0.0000000000000284
 11
192.133405864348
 21
127.618523105366
 31
0.0000000000000284
  0
LINE
  5
26B
  8
0
 10
192.167724609375
 20
127.752258300781
 30
0.0000000000000284
 11
192.149407808042
 21
127.685689761813
 31
0.0000000000000284
  0
LINE
  5
26C
  8
0
 10
192.188323974609
 20
127.818161010742
 30
0.0000000000000284
 11
192.167720398574
 21
127.752264362527
 31
0.0000000000000284
  0
LINE
  5
26D
  8
0
 10
192.211196899414
 20
127.88330078125
 30
0.0000000000000284
 11
192.188331102346
 21
127.818154554069
 31
0.0000000000000284
  0
LINE
  5
26E
  8
0
 10
192.236297607422
 20
127.947616577148
 30
0.0000000000000284
 11
192.211196838925
 21
127.883298406992
 31
0.0000000000000284
  0
LINE
  5
26F
  8
0
 10
192.263595581055
 20
128.011032104492
 30
0.0000000000000284
 11
192.236289754188
 21
127.947618640539
 31
0.0000000000000284
  0
LINE
  5
270
  8
0
 10
192.293075561523
 20
128.073471069336
 30
0.0000000000000284
 11
192.263597217158
 21
128.011037882609
 31
0.0000000000000284
  0
LINE
  5
271
  8
0
 10
192.324691772461
 20
128.134841918945
 30
0.0000000000000284
 11
192.293076040496
 21
128.073463412253
 31
0.0000000000000284
  0
LINE
  5
272
  8
0
 10
192.358413696289
 20
128.195098876953
 30
0.0000000000000284
 11
192.32469825379
 21
128.134848196222
 31
0.0000000000000284
  0
LINE
  5
273
  8
0
 10
192.394180297852
 20
128.254150390625
 30
0.0000000000000284
 11
192.358405324148
 21
128.19509933773
 31
0.0000000000000284
  0
LINE
  5
274
  8
0
 10
192.431976318359
 20
128.311920166016
 30
0.0000000000000284
 11
192.394184447164
 21
128.254139113213
 31
0.0000000000000284
  0
LINE
  5
275
  8
0
 10
192.471740722656
 20
128.368362426758
 30
0.0000000000000284
 11
192.431976991256
 21
128.31192023282
 31
0.0000000000000284
  0
LINE
  5
276
  8
0
 10
192.513427734375
 20
128.423400878906
 30
0.0000000000000284
 11
192.47173952996
 21
128.368364807061
 31
0.0000000000000284
  0
LINE
  5
277
  8
0
 10
192.556991577148
 20
128.476974487305
 30
0.0000000000000284
 11
192.51342858034
 21
128.42341012508
 31
0.0000000000000284
  0
LINE
  5
278
  8
0
 10
192.602386474609
 20
128.528991699219
 30
0.0000000000000284
 11
192.557000600254
 21
128.476962880278
 31
0.0000000000000284
  0
LINE
  5
279
  8
0
 10
192.649536132812
 20
128.579437255859
 30
0.0000000000000284
 11
192.602381468114
 21
128.529005983928
 31
0.0000000000000284
  0
LINE
  5
27A
  8
0
 10
192.698394775391
 20
128.628204345703
 30
0.0000000000000284
 11
192.649527515454
 21
128.579430720682
 31
0.0000000000000284
  0
LINE
  5
27B
  8
0
 10
192.748916625977
 20
128.675262451172
 30
0.0000000000000284
 11
192.698395006839
 21
128.628204597511
 31
0.0000000000000284
  0
LINE
  5
27C
  8
0
 10
192.801040649414
 20
128.720550537109
 30
0.0000000000000284
 11
192.748924878644
 21
128.675264534542
 31
0.0000000000000284
  0
LINE
  5
27D
  8
0
 10
195.865219116211
 20
131.291702270508
 30
0.0000000000000284
 11
192.801041343735
 21
128.720551831762
 31
0.0000000000000284
  0
LINE
  5
27E
  8
0
 10
195.918869018555
 20
131.335159301758
 30
0.0000000000000284
 11
195.865221203502
 21
131.291699118469
 31
0.0000000000000284
  0
LINE
  5
27F
  8
0
 10
195.973983764648
 20
131.376739501953
 30
0.0000000000000284
 11
195.918867838427
 21
131.335156930265
 31
0.0000000000000284
  0
LINE
  5
280
  8
0
 10
196.030502319336
 20
131.416397094727
 30
0.0000000000000284
 11
195.973983964637
 21
131.376741689376
 31
0.0000000000000284
  0
LINE
  5
281
  8
0
 10
196.088348388672
 20
131.454071044922
 30
0.0000000000000284
 11
196.030494959486
 21
131.416390064004
 31
0.0000000000000284
  0
LINE
  5
282
  8
0
 10
196.147476196289
 20
131.48974609375
 30
0.0000000000000284
 11
196.088356637642
 21
131.454084442403
 31
0.0000000000000284
  0
LINE
  5
283
  8
0
 10
196.207778930664
 20
131.523345947266
 30
0.0000000000000284
 11
196.147463696451
 21
131.489746124152
 31
0.0000000000000284
  0
LINE
  5
284
  8
0
 10
196.269226074219
 20
131.554840087891
 30
0.0000000000000284
 11
196.207787043244
 21
131.523342134556
 31
0.0000000000000284
  0
LINE
  5
285
  8
0
 10
196.33171081543
 20
131.584197998047
 30
0.0000000000000284
 11
196.269221205747
 21
131.554839451196
 31
0.0000000000000284
  0
LINE
  5
286
  8
0
 10
196.39518737793
 20
131.611373901367
 30
0.0000000000000284
 11
196.331721659589
 21
131.584189748136
 31
0.0000000000000284
  0
LINE
  5
287
  8
0
 10
196.459548950195
 20
131.636352539062
 30
0.0000000000000284
 11
196.395182756492
 21
131.61137517532
 31
0.0000000000000284
  0
LINE
  5
288
  8
0
 10
196.52473449707
 20
131.659103393555
 30
0.0000000000000284
 11
196.459544534413
 21
131.636362585297
 31
0.0000000000000284
  0
LINE
  5
289
  8
0
 10
196.590667724609
 20
131.679580688477
 30
0.0000000000000284
 11
196.524731681109
 21
131.659103536355
 31
0.0000000000000284
  0
LINE
  5
28A
  8
0
 10
196.657272338867
 20
131.697769165039
 30
0.0000000000000284
 11
196.590668791753
 21
131.679580072063
 31
0.0000000000000284
  0
LINE
  5
28B
  8
0
 10
196.724472045898
 20
131.713638305664
 30
0.0000000000000284
 11
196.657280367877
 21
131.697758948119
 31
0.0000000000000284
  0
LINE
  5
28C
  8
0
 10
196.792175292969
 20
131.727188110352
 30
0.0000000000000284
 11
196.724475557631
 21
131.713637411968
 31
0.0000000000000284
  0
LINE
  5
28D
  8
0
 10
196.860290527344
 20
131.738403320312
 30
0.0000000000000284
 11
196.792163413745
 21
131.727197429713
 31
0.0000000000000284
  0
LINE
  5
28E
  8
0
 10
196.928771972656
 20
131.747253417969
 30
0.0000000000000284
 11
196.860298669165
 21
131.738405689426
 31
0.0000000000000284
  0
LINE
  5
28F
  8
0
 10
196.997512817383
 20
131.753723144531
 30
0.0000000000000284
 11
196.928774924928
 21
131.74724412205
 31
0.0000000000000284
  0
LINE
  5
290
  8
0
 10
197.066421508789
 20
131.757827758789
 30
0.0000000000000284
 11
196.997500943617
 21
131.753725163543
 31
0.0000000000000284
  0
LINE
  5
291
  8
0
 10
197.135452270508
 20
131.759552001953
 30
0.0000000000000284
 11
197.066431166558
 21
131.757830723083
 31
0.0000000000000284
  0
LINE
  5
292
  8
0
 10
197.204483032227
 20
131.758895874023
 30
0.0000000000000284
 11
197.135443643253
 21
131.759557962809
 31
0.0000000000000284
  0
LINE
  5
293
  8
0
 10
197.273468017578
 20
131.755844116211
 30
0.0000000000000284
 11
197.204492619125
 21
131.758888783629
 31
0.0000000000000284
  0
LINE
  5
294
  8
0
 10
197.34228515625
 20
131.750427246094
 30
0.0000000000000284
 11
197.273455947604
 21
131.755850863756
 31
0.0000000000000284
  0
LINE
  5
295
  8
0
 10
197.410888671875
 20
131.742630004883
 30
0.0000000000000284
 11
197.342287678104
 21
131.750426109362
 31
0.0000000000000284
  0
LINE
  5
296
  8
0
 10
197.479187011719
 20
131.732467651367
 30
0.0000000000000284
 11
197.410895985924
 21
131.742626951899
 31
0.0000000000000284
  0
LINE
  5
297
  8
0
 10
197.547088623047
 20
131.719955444336
 30
0.0000000000000284
 11
197.479188948934
 21
131.732465833889
 31
0.0000000000000284
  0
LINE
  5
298
  8
0
 10
197.614517211914
 20
131.705108642578
 30
0.0000000000000284
 11
197.547089806808
 21
131.719955212285
 31
0.0000000000000284
  0
LINE
  5
299
  8
0
 10
197.681381225586
 20
131.687942504883
 30
0.0000000000000284
 11
197.614506443999
 21
131.705107561806
 31
0.0000000000000284
  0
LINE
  5
29A
  8
0
 10
197.747634887695
 20
131.668472290039
 30
0.0000000000000284
 11
197.681392425569
 21
131.687935378256
 31
0.0000000000000284
  0
LINE
  5
29B
  8
0
 10
197.81315612793
 20
131.646743774414
 30
0.0000000000000284
 11
197.747624927658
 21
131.668481699394
 31
0.0000000000000284
  0
LINE
  5
29C
  8
0
 10
197.877899169922
 20
131.622756958008
 30
0.0000000000000284
 11
197.813157326275
 21
131.646743814255
 31
0.0000000000000284
  0
LINE
  5
29D
  8
0
 10
197.941772460938
 20
131.596542358398
 30
0.0000000000000284
 11
197.877897127993
 21
131.622749560323
 31
0.0000000000000284
  0
LINE
  5
29E
  8
0
 10
198.00471496582
 20
131.568145751953
 30
0.0000000000000284
 11
197.941782265021
 21
131.596542067938
 31
0.0000000000000284
  0
LINE
  5
29F
  8
0
 10
198.066619873047
 20
131.53759765625
 30
0.0000000000000284
 11
198.00470480248
 21
131.568149245868
 31
0.0000000000000284
  0
LINE
  5
2A0
  8
0
 10
198.12744140625
 20
131.504928588867
 30
0.0000000000000284
 11
198.066617751276
 21
131.537599043212
 31
0.0000000000000284
  0
LINE
  5
2A1
  8
0
 10
198.187103271484
 20
131.470184326172
 30
0.0000000000000284
 11
198.127443516803
 21
131.504934711245
 31
0.0000000000000284
  0
LINE
  5
2A2
  8
0
 10
198.245529174805
 20
131.433395385742
 30
0.0000000000000284
 11
198.187104418072
 21
131.470184288854
 31
0.0000000000000284
  0
LINE
  5
2A3
  8
0
 10
198.302658081055
 20
131.394607543945
 30
0.0000000000000284
 11
198.245537948158
 21
131.433391123064
 31
0.0000000000000284
  0
LINE
  5
2A4
  8
0
 10
198.3583984375
 20
131.353881835938
 30
0.0000000000000284
 11
198.30265099958
 21
131.394613871939
 31
0.0000000000000284
  0
LINE
  5
2A5
  8
0
 10
198.412704467773
 20
131.311248779297
 30
0.0000000000000284
 11
198.358396160107
 21
131.353880731044
 31
0.0000000000000284
  0
LINE
  5
2A6
  8
0
 10
198.465515136719
 20
131.266754150391
 30
0.0000000000000284
 11
198.412710679541
 21
131.311235212582
 31
0.0000000000000284
  0
LINE
  5
2A7
  8
0
 10
198.516754150391
 20
131.220489501953
 30
0.0000000000000284
 11
198.465516471772
 21
131.266766665665
 31
0.0000000000000284
  0
LINE
  5
2A8
  8
0
 10
198.566360473633
 20
131.172470092773
 30
0.0000000000000284
 11
198.516750634483
 21
131.220488208636
 31
0.0000000000000284
  0
LINE
  5
2A9
  8
0
 10
198.614288330078
 20
131.122756958008
 30
0.0000000000000284
 11
198.56636545138
 21
131.172458801925
 31
0.0000000000000284
  0
LINE
  5
2AA
  8
0
 10
198.660461425781
 20
131.071441650391
 30
0.0000000000000284
 11
198.614282618135
 21
131.122767991735
 31
0.0000000000000284
  0
LINE
  5
2AB
  8
0
 10
198.704849243164
 20
131.0185546875
 30
0.0000000000000284
 11
198.660469538727
 21
131.071444359701
 31
0.0000000000000284
  0
LINE
  5
2AC
  8
0
 10
198.747375488281
 20
130.964157104492
 30
0.0000000000000284
 11
198.704847775186
 21
131.018547077928
 31
0.0000000000000284
  0
LINE
  5
2AD
  8
0
 10
198.787994384766
 20
130.908340454102
 30
0.0000000000000284
 11
198.747369344092
 21
130.964165911213
 31
0.0000000000000284
  0
LINE
  5
2AE
  8
0
 10
198.826675415039
 20
130.851135253906
 30
0.0000000000000284
 11
198.788001460415
 21
130.908329666441
 31
0.0000000000000284
  0
LINE
  5
2AF
  8
0
 10
198.863342285156
 20
130.79264831543
 30
0.0000000000000284
 11
198.826665505065
 21
130.851143523726
 31
0.0000000000000284
  0
LINE
  5
2B0
  8
0
 10
198.897979736328
 20
130.73291015625
 30
0.0000000000000284
 11
198.863343839182
 21
130.792636450462
 31
0.0000000000000284
  0
LINE
  5
2B1
  8
0
 10
198.930541992188
 20
130.672027587891
 30
0.0000000000000284
 11
198.897988254239
 21
130.732913791065
 31
0.0000000000000284
  0
LINE
  5
2B2
  8
0
 10
198.960968017578
 20
130.610061645508
 30
0.0000000000000284
 11
198.930535233732
 21
130.672035198406
 31
0.0000000000000284
  0
LINE
  5
2B3
  8
0
 10
198.989242553711
 20
130.547073364258
 30
0.0000000000000284
 11
198.960966991291
 21
130.610060411825
 31
0.0000000000000284
  0
LINE
  5
2B4
  8
0
 10
199.015335083008
 20
130.483139038086
 30
0.0000000000000284
 11
198.989250438536
 21
130.547064517468
 31
0.0000000000000284
  0
LINE
  5
2B5
  8
0
 10
199.039184570312
 20
130.418350219727
 30
0.0000000000000284
 11
199.015321929353
 21
130.483137949721
 31
0.0000000000000284
  0
LINE
  5
2B6
  8
0
 10
199.060806274414
 20
130.352783203125
 30
0.0000000000000284
 11
199.039194074526
 21
130.41835597497
 31
0.0000000000000284
  0
LINE
  5
2B7
  8
0
 10
199.080139160156
 20
130.286499023438
 30
0.0000000000000284
 11
199.060803157008
 21
130.352778692822
 31
0.0000000000000284
  0
LINE
  5
2B8
  8
0
 10
199.09716796875
 20
130.219604492188
 30
0.0000000000000284
 11
199.080131205421
 21
130.286512072376
 31
0.0000000000000284
  0
LINE
  5
2B9
  8
0
 10
199.111892700195
 20
130.152145385742
 30
0.0000000000000284
 11
199.097175479719
 21
130.219601141708
 31
0.0000000000000284
  0
LINE
  5
2BA
  8
0
 10
199.124267578125
 20
130.084213256836
 30
0.0000000000000284
 11
199.11188743929
 21
130.152136800279
 31
0.0000000000000284
  0
LINE
  5
2BB
  8
0
 10
199.134307861328
 20
130.015914916992
 30
0.0000000000000284
 11
199.124279557781
 21
130.084225302143
 31
0.0000000000000284
  0
LINE
  5
2BC
  8
0
 10
199.141967773438
 20
129.947296142578
 30
0.0000000000000284
 11
199.134303256097
 21
130.015911962659
 31
0.0000000000000284
  0
LINE
  5
2BD
  8
0
 10
199.147262573242
 20
129.878448486328
 30
0.0000000000000284
 11
199.141970976058
 21
129.94728797057
 31
0.0000000000000284
  0
LINE
  5
2BE
  8
0
 10
199.150177001953
 20
129.809463500977
 30
0.0000000000000284
 11
199.147264631022
 21
129.878444612065
 31
0.0000000000000284
  0
LINE
  5
2BF
  8
0
 10
199.150695800781
 20
129.740432739258
 30
0.0000000000000284
 11
199.15016612683
 21
129.809473271099
 31
0.0000000000000284
  0
LINE
  5
2C0
  8
0
 10
199.148849487305
 20
129.671417236328
 30
0.0000000000000284
 11
199.150703141556
 21
129.740434912016
 31
0.0000000000000284
  0
LINE
  5
2C1
  8
0
 10
199.144607543945
 20
129.602493286133
 30
0.0000000000000284
 11
199.148842317365
 21
129.671405855999
 31
0.0000000000000284
  0
LINE
  5
2C2
  8
0
 10
199.138000488281
 20
129.533767700195
 30
0.0000000000000284
 11
199.14461133421
 21
129.602493039827
 31
0.0000000000000284
  0
LINE
  5
2C3
  8
0
 10
199.129028320312
 20
129.465316772461
 30
0.0000000000000284
 11
199.138007360479
 21
129.533772980573
 31
0.0000000000000284
  0
LINE
  5
2C4
  8
0
 10
199.117691040039
 20
129.397216796875
 30
0.0000000000000284
 11
199.129027573952
 21
129.465322292911
 31
0.0000000000000284
  0
LINE
  5
2C5
  8
0
 10
199.10400390625
 20
129.329544067383
 30
0.0000000000000284
 11
199.117684423948
 21
129.397217688735
 31
0.0000000000000284
  0
LINE
  5
2C6
  8
0
 10
199.087997436523
 20
129.26237487793
 30
0.0000000000000284
 11
199.104005634675
 21
129.329535976665
 31
0.0000000000000284
  0
LINE
  5
2C7
  8
0
 10
199.069671630859
 20
129.195816040039
 30
0.0000000000000284
 11
199.087988432192
 21
129.262384579007
 31
0.0000000000000284
  0
LINE
  5
2C8
  8
0
 10
199.049072265625
 20
129.129913330078
 30
0.0000000000000284
 11
199.069675841661
 21
129.195809978293
 31
0.0000000000000284
  0
LINE
  5
2C9
  8
0
 10
199.026214599609
 20
129.06477355957
 30
0.0000000000000284
 11
199.049080396677
 21
129.129919786751
 31
0.0000000000000284
  0
LINE
  5
2CA
  8
0
 10
199.001113891602
 20
129.000442504883
 30
0.0000000000000284
 11
199.026214660099
 21
129.064760675039
 31
0.0000000000000284
  0
LINE
  5
2CB
  8
0
 10
198.97380065918
 20
128.937042236328
 30
0.0000000000000284
 11
199.001106486046
 21
129.000455700282
 31
0.0000000000000284
  0
LINE
  5
2CC
  8
0
 10
198.944320678711
 20
128.874603271484
 30
0.0000000000000284
 11
198.973799023077
 21
128.937036458211
 31
0.0000000000000284
  0
LINE
  5
2CD
  8
0
 10
198.912704467773
 20
128.813217163086
 30
0.0000000000000284
 11
198.944320199739
 21
128.874595669778
 31
0.0000000000000284
  0
LINE
  5
2CE
  8
0
 10
198.878997802734
 20
128.752975463867
 30
0.0000000000000284
 11
198.912713245234
 21
128.813226144598
 31
0.0000000000000284
  0
LINE
  5
2CF
  8
0
 10
198.843215942383
 20
128.693923950195
 30
0.0000000000000284
 11
198.878990916086
 21
128.75297500309
 31
0.0000000000000284
  0
LINE
  5
2D0
  8
0
 10
198.805419921875
 20
128.636138916016
 30
0.0000000000000284
 11
198.84321179307
 21
128.693919968818
 31
0.0000000000000284
  0
LINE
  5
2D1
  8
0
 10
198.765655517578
 20
128.579696655273
 30
0.0000000000000284
 11
198.805419248978
 21
128.636138849212
 31
0.0000000000000284
  0
LINE
  5
2D2
  8
0
 10
198.723968505859
 20
128.524658203125
 30
0.0000000000000284
 11
198.765656710274
 21
128.57969427497
 31
0.0000000000000284
  0
LINE
  5
2D3
  8
0
 10
198.680404663086
 20
128.471099853516
 30
0.0000000000000284
 11
198.723967659894
 21
128.52466421574
 31
0.0000000000000284
  0
LINE
  5
2D4
  8
0
 10
198.635025024414
 20
128.419067382812
 30
0.0000000000000284
 11
198.68041089877
 21
128.471096201754
 31
0.0000000000000284
  0
LINE
  5
2D5
  8
0
 10
198.587875366211
 20
128.368637084961
 30
0.0000000000000284
 11
198.635030030909
 21
128.419068356892
 31
0.0000000000000284
  0
LINE
  5
2D6
  8
0
 10
198.539001464844
 20
128.319869995117
 30
0.0000000000000284
 11
198.58786872478
 21
128.368643620139
 31
0.0000000000000284
  0
LINE
  5
2D7
  8
0
 10
198.488479614258
 20
128.272811889648
 30
0.0000000000000284
 11
198.539001233395
 21
128.31986974331
 31
0.0000000000000284
  0
LINE
  5
2D8
  8
0
 10
198.436370849609
 20
128.227523803711
 30
0.0000000000000284
 11
198.488486620379
 21
128.272809806278
 31
0.0000000000000284
  0
LINE
  5
2D9
  8
0
 10
195.372192382812
 20
125.656372070312
 30
0.0000000000000284
 11
198.436370155288
 21
128.227522509059
 31
0.0000000000000284
  0
LINE
  5
2DA
  8
0
 10
195.318542480469
 20
125.612915039062
 30
0.0000000000000284
 11
195.372190295522
 21
125.656375222351
 31
0.0000000000000284
  0
LINE
  5
2DB
  8
0
 10
195.263427734375
 20
125.571334838867
 30
0.0000000000000284
 11
195.318543660597
 21
125.612917410555
 31
0.0000000000000284
  0
LINE
  5
2DC
  8
0
 10
195.206909179688
 20
125.531677246094
 30
0.0000000000000284
 11
195.263427534387
 21
125.571332651444
 31
0.0000000000000284
  0
LINE
  5
2DD
  8
0
 10
195.149047851562
 20
125.493988037109
 30
0.0000000000000284
 11
195.206901280748
 21
125.531669018027
 31
0.0000000000000284
  0
LINE
  5
2DE
  8
0
 10
195.089935302734
 20
125.45832824707
 30
0.0000000000000284
 11
195.149054861381
 21
125.493989898418
 31
0.0000000000000284
  0
LINE
  5
2DF
  8
0
 10
195.02961730957
 20
125.424728393555
 30
0.0000000000000284
 11
195.089932543784
 21
125.458328216668
 31
0.0000000000000284
  0
LINE
  5
2E0
  8
0
 10
194.968185424805
 20
125.39323425293
 30
0.0000000000000284
 11
195.02962445578
 21
125.424732206265
 31
0.0000000000000284
  0
LINE
  5
2E1
  8
0
 10
194.905685424805
 20
125.363876342773
 30
0.0000000000000284
 11
194.968175034487
 21
125.393234889624
 31
0.0000000000000284
  0
LINE
  5
2E2
  8
0
 10
194.842224121094
 20
125.336685180664
 30
0.0000000000000284
 11
194.905689839435
 21
125.363869333895
 31
0.0000000000000284
  0
LINE
  5
2E3
  8
0
 10
194.777862548828
 20
125.311706542969
 30
0.0000000000000284
 11
194.842228742532
 21
125.336683906711
 31
0.0000000000000284
  0
LINE
  5
2E4
  8
0
 10
194.712661743164
 20
125.288970947266
 30
0.0000000000000284
 11
194.777851705821
 21
125.311711755523
 31
0.0000000000000284
  0
LINE
  5
2E5
  8
0
 10
194.646728515625
 20
125.268493652344
 30
0.0000000000000284
 11
194.712664559125
 21
125.288970804465
 31
0.0000000000000284
  0
LINE
  5
2E6
  8
0
 10
194.580123901367
 20
125.250305175781
 30
0.0000000000000284
 11
194.646727448481
 21
125.268494268758
 31
0.0000000000000284
  0
LINE
  5
2E7
  8
0
 10
194.512939453125
 20
125.234420776367
 30
0.0000000000000284
 11
194.580131131147
 21
125.250300133913
 31
0.0000000000000284
  0
LINE
  5
2E8
  8
0
 10
194.445236206055
 20
125.22087097168
 30
0.0000000000000284
 11
194.512935941392
 21
125.234421670064
 31
0.0000000000000284
  0
LINE
  5
2E9
  8
0
 10
194.377105712891
 20
125.209671020508
 30
0.0000000000000284
 11
194.44523282649
 21
125.220876911107
 31
0.0000000000000284
  0
LINE
  5
2EA
  8
0
 10
194.308639526367
 20
125.200820922852
 30
0.0000000000000284
 11
194.377112829859
 21
125.209668651394
 31
0.0000000000000284
  0
LINE
  5
2EB
  8
0
 10
194.239898681641
 20
125.1943359375
 30
0.0000000000000284
 11
194.308636574095
 21
125.200814959981
 31
0.0000000000000284
  0
LINE
  5
2EC
  8
0
 10
194.170974731445
 20
125.190246582031
 30
0.0000000000000284
 11
194.239895296618
 21
125.194349177277
 31
0.0000000000000284
  0
LINE
  5
2ED
  8
0
 10
194.101959228516
 20
125.188522338867
 30
0.0000000000000284
 11
194.170980332466
 21
125.190243617738
 31
0.0000000000000284
  0
LINE
  5
2EE
  8
0
 10
118.795516967773
 20
50.24111175537099
 30
0.0000000000000284
 11
118.864556356747
 21
50.24044966658499
 31
0.0000000000000284
  0
LINE
  5
2EF
  8
0
 10
118.726531982422
 20
50.24415588378901
 30
0.0000000000000284
 11
118.795507380875
 21
50.241111216371
 31
0.0000000000000284
  0
LINE
  5
2F0
  8
0
 10
118.657699584961
 20
50.24958038330099
 30
0.0000000000000284
 11
118.726528793607
 21
50.244156765638
 31
0.0000000000000284
  0
LINE
  5
2F1
  8
0
 10
118.589111328125
 20
50.257377624512
 30
0.0000000000000284
 11
118.657712321896
 21
50.249581520032
 31
0.0000000000000284
  0
LINE
  5
2F2
  8
0
 10
118.520812988281
 20
50.267532348633
 30
0.0000000000000284
 11
118.589104014076
 21
50.257373048101
 31
0.0000000000000284
  0
LINE
  5
2F3
  8
0
 10
118.452911376953
 20
50.28004455566401
 30
0.0000000000000284
 11
118.520811051066
 21
50.26753416611101
 31
0.0000000000000284
  0
LINE
  5
2F4
  8
0
 10
118.385482788086
 20
50.294891357422
 30
0.0000000000000284
 11
118.452910193192
 21
50.280044787715
 31
0.0000000000000284
  0
LINE
  5
2F5
  8
0
 10
118.318618774414
 20
50.312057495117
 30
0.0000000000000284
 11
118.385493556001
 21
50.294892438194
 31
0.0000000000000284
  0
LINE
  5
2F6
  8
0
 10
118.252365112305
 20
50.33152008056599
 30
0.0000000000000284
 11
118.318607574431
 21
50.31205699234999
 31
0.0000000000000284
  0
LINE
  5
2F7
  8
0
 10
118.18684387207
 20
50.35325622558599
 30
0.0000000000000284
 11
118.252375072342
 21
50.33151830060601
 31
0.0000000000000284
  0
LINE
  5
2F8
  8
0
 10
118.122100830078
 20
50.377243041992
 30
0.0000000000000284
 11
118.186842673725
 21
50.353256185745
 31
0.0000000000000284
  0
LINE
  5
2F9
  8
0
 10
118.058227539062
 20
50.403450012207
 30
0.0000000000000284
 11
118.122102872007
 21
50.377242810282
 31
0.0000000000000284
  0
LINE
  5
2FA
  8
0
 10
117.99528503418
 20
50.431846618652
 30
0.0000000000000284
 11
118.058217734979
 21
50.40345030266801
 31
0.0000000000000284
  0
LINE
  5
2FB
  8
0
 10
117.933380126953
 20
50.46240234375
 30
0.0000000000000284
 11
117.99529519752
 21
50.431850754132
 31
0.0000000000000284
  0
LINE
  5
2FC
  8
0
 10
117.872543334961
 20
50.495071411133
 30
0.0000000000000284
 11
117.933366989935
 21
50.462400956788
 31
0.0000000000000284
  0
LINE
  5
2FD
  8
0
 10
117.812896728516
 20
50.529823303223
 30
0.0000000000000284
 11
117.872556483197
 21
50.49507291814901
 31
0.0000000000000284
  0
LINE
  5
2FE
  8
0
 10
117.754470825195
 20
50.566612243652
 30
0.0000000000000284
 11
117.812895581928
 21
50.529823340541
 31
0.0000000000000284
  0
LINE
  5
2FF
  8
0
 10
117.697341918945
 20
50.605392456055
 30
0.0000000000000284
 11
117.754462051842
 21
50.566608876936
 31
0.0000000000000284
  0
LINE
  5
300
  8
0
 10
117.6416015625
 20
50.646125793457
 30
0.0000000000000284
 11
117.69734900042
 21
50.605393757455
 31
0.0000000000000284
  0
LINE
  5
301
  8
0
 10
117.587295532227
 20
50.688758850098
 30
0.0000000000000284
 11
117.641603839893
 21
50.64612689835
 31
0.0000000000000284
  0
LINE
  5
302
  8
0
 10
117.534484863281
 20
50.733238220215
 30
0.0000000000000284
 11
117.587289320459
 21
50.688757158024
 31
0.0000000000000284
  0
LINE
  5
303
  8
0
 10
117.483245849609
 20
50.77951812744099
 30
0.0000000000000284
 11
117.534483528228
 21
50.733240963729
 31
0.0000000000000284
  0
LINE
  5
304
  8
0
 10
117.433639526367
 20
50.82753753662099
 30
0.0000000000000284
 11
117.483249365517
 21
50.779519420759
 31
0.0000000000000284
  0
LINE
  5
305
  8
0
 10
117.385711669922
 20
50.877235412598
 30
0.0000000000000284
 11
117.43363454862
 21
50.82753356868101
 31
0.0000000000000284
  0
LINE
  5
306
  8
0
 10
117.339538574219
 20
50.92855834960901
 30
0.0000000000000284
 11
117.385717381865
 21
50.877232008265
 31
0.0000000000000284
  0
LINE
  5
307
  8
0
 10
117.295150756836
 20
50.981452941895
 30
0.0000000000000284
 11
117.339530461273
 21
50.928563269694
 31
0.0000000000000284
  0
LINE
  5
308
  8
0
 10
117.252624511719
 20
51.035842895508
 30
0.0000000000000284
 11
117.295152224814
 21
50.98145292207199
 31
0.0000000000000284
  0
LINE
  5
309
  8
0
 10
117.212005615234
 20
51.091667175293
 30
0.0000000000000284
 11
117.252630655908
 21
51.035841718182
 31
0.0000000000000284
  0
LINE
  5
30A
  8
0
 10
117.173324584961
 20
51.14886474609401
 30
0.0000000000000284
 11
117.211998539584
 21
51.09167033355899
 31
0.0000000000000284
  0
LINE
  5
30B
  8
0
 10
117.136657714844
 20
51.207359313965
 30
0.0000000000000284
 11
117.173334494935
 21
51.14886410566901
 31
0.0000000000000284
  0
LINE
  5
30C
  8
0
 10
117.102020263672
 20
51.267082214355
 30
0.0000000000000284
 11
117.136656160818
 21
51.207355920143
 31
0.0000000000000284
  0
LINE
  5
30D
  8
0
 10
117.069458007812
 20
51.32797241210901
 30
0.0000000000000284
 11
117.102011745761
 21
51.267086208935
 31
0.0000000000000284
  0
LINE
  5
30E
  8
0
 10
117.039031982422
 20
51.389945983887
 30
0.0000000000000284
 11
117.069464766268
 21
51.32797243098901
 31
0.0000000000000284
  0
LINE
  5
30F
  8
0
 10
117.010757446289
 20
51.452926635742
 30
0.0000000000000284
 11
117.039033008709
 21
51.389939588175
 31
0.0000000000000284
  0
LINE
  5
310
  8
0
 10
116.984664916992
 20
51.51685333252
 30
0.0000000000000284
 11
117.010749561464
 21
51.45292785313799
 31
0.0000000000000284
  0
LINE
  5
311
  8
0
 10
116.960815429688
 20
51.58164215087901
 30
0.0000000000000284
 11
116.984678070647
 21
51.516854420884
 31
0.0000000000000284
  0
LINE
  5
312
  8
0
 10
116.939193725586
 20
51.647216796875
 30
0.0000000000000284
 11
116.960805925474
 21
51.58164402503
 31
0.0000000000000284
  0
LINE
  5
313
  8
0
 10
116.919860839844
 20
51.713493347168
 30
0.0000000000000284
 11
116.939196842992
 21
51.64721367778399
 31
0.0000000000000284
  0
LINE
  5
314
  8
0
 10
116.902816772461
 20
51.780403137207
 30
0.0000000000000284
 11
116.91985353579
 21
51.71349555701801
 31
0.0000000000000284
  0
LINE
  5
315
  8
0
 10
116.888107299805
 20
51.847862243652
 30
0.0000000000000284
 11
116.902824520281
 21
51.780406487687
 31
0.0000000000000284
  0
LINE
  5
316
  8
0
 10
116.875732421875
 20
51.91577911377
 30
0.0000000000000284
 11
116.88811256071
 21
51.847855570326
 31
0.0000000000000284
  0
LINE
  5
317
  8
0
 10
116.865692138672
 20
51.984092712402
 30
0.0000000000000284
 11
116.875720442219
 21
51.915782327252
 31
0.0000000000000284
  0
LINE
  5
318
  8
0
 10
116.858032226562
 20
52.05271148681599
 30
0.0000000000000284
 11
116.865696743903
 21
51.984095666736
 31
0.0000000000000284
  0
LINE
  5
319
  8
0
 10
116.852737426758
 20
52.121551513672
 30
0.0000000000000284
 11
116.858029023942
 21
52.05271202943
 31
0.0000000000000284
  0
LINE
  5
31A
  8
0
 10
116.849822998047
 20
52.19052886962901
 30
0.0000000000000284
 11
116.852735368978
 21
52.12154775854
 31
0.0000000000000284
  0
LINE
  5
31B
  8
0
 10
116.849304199219
 20
52.259567260742
 30
0.0000000000000284
 11
116.84983387317
 21
52.19052672890101
 31
0.0000000000000284
  0
LINE
  5
31C
  8
0
 10
116.851150512695
 20
52.32859039306599
 30
0.0000000000000284
 11
116.849296858444
 21
52.259572717379
 31
0.0000000000000284
  0
LINE
  5
31D
  8
0
 10
116.855392456055
 20
52.397499084473
 30
0.0000000000000284
 11
116.851157682635
 21
52.328586514607
 31
0.0000000000000284
  0
LINE
  5
31E
  8
0
 10
116.861999511719
 20
52.46622467041
 30
0.0000000000000284
 11
116.855388665791
 21
52.397499330778
 31
0.0000000000000284
  0
LINE
  5
31F
  8
0
 10
116.870971679688
 20
52.53468322753901
 30
0.0000000000000284
 11
116.861992639521
 21
52.466227019427
 31
0.0000000000000284
  0
LINE
  5
320
  8
0
 10
116.882308959961
 20
52.602783203125
 30
0.0000000000000284
 11
116.870972426048
 21
52.534677707089
 31
0.0000000000000284
  0
LINE
  5
321
  8
0
 10
116.89599609375
 20
52.670463562012
 30
0.0000000000000284
 11
116.882315576052
 21
52.60278994065899
 31
0.0000000000000284
  0
LINE
  5
322
  8
0
 10
116.912002563477
 20
52.73762512207
 30
0.0000000000000284
 11
116.895994365325
 21
52.670464023335
 31
0.0000000000000284
  0
LINE
  5
323
  8
0
 10
116.930313110352
 20
52.804191589355
 30
0.0000000000000284
 11
116.911996309019
 21
52.737623050387
 31
0.0000000000000284
  0
LINE
  5
324
  8
0
 10
116.950927734375
 20
52.870086669922
 30
0.0000000000000284
 11
116.930324158339
 21
52.804190021707
 31
0.0000000000000284
  0
LINE
  5
325
  8
0
 10
116.973785400391
 20
52.93523406982401
 30
0.0000000000000284
 11
116.950919603323
 21
52.870087842643
 31
0.0000000000000284
  0
LINE
  5
326
  8
0
 10
116.998886108398
 20
52.999549865723
 30
0.0000000000000284
 11
116.973785339901
 21
52.935231695566
 31
0.0000000000000284
  0
LINE
  5
327
  8
0
 10
117.02619934082
 20
53.06296539306599
 30
0.0000000000000284
 11
116.998893513954
 21
52.999551929113
 31
0.0000000000000284
  0
LINE
  5
328
  8
0
 10
117.055679321289
 20
53.12539672851599
 30
0.0000000000000284
 11
117.026200976923
 21
53.062963541789
 31
0.0000000000000284
  0
LINE
  5
329
  8
0
 10
117.087295532227
 20
53.18677520752
 30
0.0000000000000284
 11
117.055679800261
 21
53.12539670082801
 31
0.0000000000000284
  0
LINE
  5
32A
  8
0
 10
117.121002197266
 20
53.247024536133
 30
0.0000000000000284
 11
117.087286754766
 21
53.186773855402
 31
0.0000000000000284
  0
LINE
  5
32B
  8
0
 10
117.156784057617
 20
53.306076049805
 30
0.0000000000000284
 11
117.121009083914
 21
53.24702499691
 31
0.0000000000000284
  0
LINE
  5
32C
  8
0
 10
117.194564819336
 20
53.36386108398401
 30
0.0000000000000284
 11
117.15677294814
 21
53.30608003118201
 31
0.0000000000000284
  0
LINE
  5
32D
  8
0
 10
117.234329223633
 20
53.420303344727
 30
0.0000000000000284
 11
117.194565492233
 21
53.363861150788
 31
0.0000000000000284
  0
LINE
  5
32E
  8
0
 10
117.276031494141
 20
53.47533416748
 30
0.0000000000000284
 11
117.234343289726
 21
53.420298095636
 31
0.0000000000000284
  0
LINE
  5
32F
  8
0
 10
117.319580078125
 20
53.52890014648401
 30
0.0000000000000284
 11
117.276017081317
 21
53.47533578426
 31
0.0000000000000284
  0
LINE
  5
330
  8
0
 10
117.364974975586
 20
53.580932617188
 30
0.0000000000000284
 11
117.31958910123
 21
53.52890379824601
 31
0.0000000000000284
  0
LINE
  5
331
  8
0
 10
117.412124633789
 20
53.63136291503901
 30
0.0000000000000284
 11
117.36496996909
 21
53.580931643108
 31
0.0000000000000284
  0
LINE
  5
332
  8
0
 10
117.460998535156
 20
53.680137634277
 30
0.0000000000000284
 11
117.41213127522
 21
53.631364009256
 31
0.0000000000000284
  0
LINE
  5
333
  8
0
 10
117.511520385742
 20
53.72719573974599
 30
0.0000000000000284
 11
117.460998766605
 21
53.68013788608501
 31
0.0000000000000284
  0
LINE
  5
334
  8
0
 10
117.563629150391
 20
53.77247619628901
 30
0.0000000000000284
 11
117.511513379621
 21
53.727190193722
 31
0.0000000000000284
  0
LINE
  5
335
  8
0
 10
120.627807617188
 20
56.343627929688
 30
0.0000000000000284
 11
117.563629844712
 21
53.772477490941
 31
0.0000000000000284
  0
LINE
  5
336
  8
0
 10
120.681457519531
 20
56.387092590332
 30
0.0000000000000284
 11
120.627809704478
 21
56.343632407044
 31
0.0000000000000284
  0
LINE
  5
337
  8
0
 10
120.736572265625
 20
56.428672790527
 30
0.0000000000000284
 11
120.681456339403
 21
56.38709021884
 31
0.0000000000000284
  0
LINE
  5
338
  8
0
 10
120.793090820312
 20
56.46833038330099
 30
0.0000000000000284
 11
120.736572465613
 21
56.42867497795
 31
0.0000000000000284
  0
LINE
  5
339
  8
0
 10
120.850952148438
 20
56.50601196289099
 30
0.0000000000000284
 11
120.793098719252
 21
56.468330981973
 31
0.0000000000000284
  0
LINE
  5
33A
  8
0
 10
120.910064697266
 20
56.54167175293
 30
0.0000000000000284
 11
120.850945138619
 21
56.50601010158201
 31
0.0000000000000284
  0
LINE
  5
33B
  8
0
 10
120.97038269043
 20
56.575271606445
 30
0.0000000000000284
 11
120.910067456216
 21
56.54167178333201
 31
0.0000000000000284
  0
LINE
  5
33C
  8
0
 10
121.031814575195
 20
56.60676574707
 30
0.0000000000000284
 11
120.97037554422
 21
56.57526779373499
 31
0.0000000000000284
  0
LINE
  5
33D
  8
0
 10
121.094314575195
 20
56.636123657227
 30
0.0000000000000284
 11
121.031824965513
 21
56.606765110376
 31
0.0000000000000284
  0
LINE
  5
33E
  8
0
 10
121.157775878906
 20
56.66331481933599
 30
0.0000000000000284
 11
121.094310160565
 21
56.636130666105
 31
0.0000000000000284
  0
LINE
  5
33F
  8
0
 10
121.222137451172
 20
56.688285827637
 30
0.0000000000000284
 11
121.157771257468
 21
56.663308463894
 31
0.0000000000000284
  0
LINE
  5
340
  8
0
 10
121.287338256836
 20
56.71102905273401
 30
0.0000000000000284
 11
121.222148294179
 21
56.68828824447699
 31
0.0000000000000284
  0
LINE
  5
341
  8
0
 10
121.353271484375
 20
56.73150634765599
 30
0.0000000000000284
 11
121.287335440875
 21
56.711029195535
 31
0.0000000000000284
  0
LINE
  5
342
  8
0
 10
121.419876098633
 20
56.74969482421901
 30
0.0000000000000284
 11
121.353272551519
 21
56.731505731242
 31
0.0000000000000284
  0
LINE
  5
343
  8
0
 10
121.487060546875
 20
56.765571594238
 30
0.0000000000000284
 11
121.419868868853
 21
56.74969223669299
 31
0.0000000000000284
  0
LINE
  5
344
  8
0
 10
121.554763793945
 20
56.77912902832
 30
0.0000000000000284
 11
121.487064058608
 21
56.76557832993601
 31
0.0000000000000284
  0
LINE
  5
345
  8
0
 10
121.622894287109
 20
56.790328979492
 30
0.0000000000000284
 11
121.55476717351
 21
56.779123088893
 31
0.0000000000000284
  0
LINE
  5
346
  8
0
 10
121.691360473633
 20
56.799179077148
 30
0.0000000000000284
 11
121.622887170141
 21
56.790331348606
 31
0.0000000000000284
  0
LINE
  5
347
  8
0
 10
121.760101318359
 20
56.805656433105
 30
0.0000000000000284
 11
121.691363425905
 21
56.799177410624
 31
0.0000000000000284
  0
LINE
  5
348
  8
0
 10
121.829025268555
 20
56.809761047363
 30
0.0000000000000284
 11
121.760104703382
 21
56.805658452117
 31
0.0000000000000284
  0
LINE
  5
349
  8
0
 10
121.898040771484
 20
56.811485290527
 30
0.0000000000000284
 11
121.829019667534
 21
56.80976401165699
 31
0.0000000000000284
  0
LINE
  5
34A
  8
0
 10
121.967086791992
 20
56.810821533203
 30
0.0000000000000284
 11
121.898047403018
 21
56.811483621989
 31
0.0000000000000284
  0
LINE
  5
34B
  8
0
 10
122.036056518555
 20
56.807777404785
 30
0.0000000000000284
 11
121.967081120102
 21
56.810822072203
 31
0.0000000000000284
  0
LINE
  5
34C
  8
0
 10
122.104888916016
 20
56.802352905273
 30
0.0000000000000284
 11
122.036059707369
 21
56.807776522936
 31
0.0000000000000284
  0
LINE
  5
34D
  8
0
 10
122.173492431641
 20
56.794555664062
 30
0.0000000000000284
 11
122.10489143787
 21
56.802351768542
 31
0.0000000000000284
  0
LINE
  5
34E
  8
0
 10
122.241775512695
 20
56.784393310547
 30
0.0000000000000284
 11
122.1734844869
 21
56.794552611078
 31
0.0000000000000284
  0
LINE
  5
34F
  8
0
 10
122.309677124023
 20
56.77188873291
 30
0.0000000000000284
 11
122.24177744991
 21
56.784399122463
 31
0.0000000000000284
  0
LINE
  5
350
  8
0
 10
122.377105712891
 20
56.757041931152
 30
0.0000000000000284
 11
122.309678307784
 21
56.77188850085901
 31
0.0000000000000284
  0
LINE
  5
351
  8
0
 10
122.443984985352
 20
56.739875793457
 30
0.0000000000000284
 11
122.377110203765
 21
56.75704085037999
 31
0.0000000000000284
  0
LINE
  5
352
  8
0
 10
122.510223388672
 20
56.720413208008
 30
0.0000000000000284
 11
122.443980926546
 21
56.739876296224
 31
0.0000000000000284
  0
LINE
  5
353
  8
0
 10
122.575759887695
 20
56.698677062988
 30
0.0000000000000284
 11
122.510228687424
 21
56.720414987968
 31
0.0000000000000284
  0
LINE
  5
354
  8
0
 10
122.640502929688
 20
56.674682617188
 30
0.0000000000000284
 11
122.575761086041
 21
56.698669473435
 31
0.0000000000000284
  0
LINE
  5
355
  8
0
 10
122.704376220703
 20
56.648475646973
 30
0.0000000000000284
 11
122.640500887759
 21
56.674682848898
 31
0.0000000000000284
  0
LINE
  5
356
  8
0
 10
122.767303466797
 20
56.620086669922
 30
0.0000000000000284
 11
122.704370765997
 21
56.648482985906
 31
0.0000000000000284
  0
LINE
  5
357
  8
0
 10
122.829223632812
 20
56.58953094482401
 30
0.0000000000000284
 11
122.767308562246
 21
56.62008253444201
 31
0.0000000000000284
  0
LINE
  5
358
  8
0
 10
122.890045166016
 20
56.55686187744099
 30
0.0000000000000284
 11
122.829221511042
 21
56.589532331786
 31
0.0000000000000284
  0
LINE
  5
359
  8
0
 10
122.94970703125
 20
56.522109985352
 30
0.0000000000000284
 11
122.890047276568
 21
56.556860370425
 31
0.0000000000000284
  0
LINE
  5
35A
  8
0
 10
123.00813293457
 20
56.485321044922
 30
0.0000000000000284
 11
122.949708177838
 21
56.52210994803301
 31
0.0000000000000284
  0
LINE
  5
35B
  8
0
 10
123.065246582031
 20
56.44654083252
 30
0.0000000000000284
 11
123.008126449134
 21
56.485324411638
 31
0.0000000000000284
  0
LINE
  5
35C
  8
0
 10
123.120986938477
 20
56.405807495117
 30
0.0000000000000284
 11
123.065239500557
 21
56.446539531119
 31
0.0000000000000284
  0
LINE
  5
35D
  8
0
 10
123.175308227539
 20
56.363174438477
 30
0.0000000000000284
 11
123.120999919872
 21
56.405806390224
 31
0.0000000000000284
  0
LINE
  5
35E
  8
0
 10
123.228103637695
 20
56.31869506835901
 30
0.0000000000000284
 11
123.175299180518
 21
56.36317613055
 31
0.0000000000000284
  0
LINE
  5
35F
  8
0
 10
123.279342651367
 20
56.272415161133
 30
0.0000000000000284
 11
123.228104972749
 21
56.318692324845
 31
0.0000000000000284
  0
LINE
  5
360
  8
0
 10
123.328948974609
 20
56.224395751953
 30
0.0000000000000284
 11
123.27933913546
 21
56.272413867815
 31
0.0000000000000284
  0
LINE
  5
361
  8
0
 10
123.376876831055
 20
56.174697875977
 30
0.0000000000000284
 11
123.328953952356
 21
56.224399719893
 31
0.0000000000000284
  0
LINE
  5
362
  8
0
 10
123.423049926758
 20
56.12336730957
 30
0.0000000000000284
 11
123.376871119111
 21
56.174693650915
 31
0.0000000000000284
  0
LINE
  5
363
  8
0
 10
123.467437744141
 20
56.07048034668
 30
0.0000000000000284
 11
123.423058039704
 21
56.123370018881
 31
0.0000000000000284
  0
LINE
  5
364
  8
0
 10
123.509963989258
 20
56.01609039306599
 30
0.0000000000000284
 11
123.467436276163
 21
56.070480366502
 31
0.0000000000000284
  0
LINE
  5
365
  8
0
 10
123.550582885742
 20
55.96026611328099
 30
0.0000000000000284
 11
123.509957845069
 21
56.016091570393
 31
0.0000000000000284
  0
LINE
  5
366
  8
0
 10
123.589263916016
 20
55.90306854248
 30
0.0000000000000284
 11
123.550589961392
 21
55.960262955015
 31
0.0000000000000284
  0
LINE
  5
367
  8
0
 10
123.625946044922
 20
55.84457397460901
 30
0.0000000000000284
 11
123.589269264831
 21
55.903069182905
 31
0.0000000000000284
  0
LINE
  5
368
  8
0
 10
123.660568237305
 20
55.78485107421901
 30
0.0000000000000284
 11
123.625932340158
 21
55.844577368431
 31
0.0000000000000284
  0
LINE
  5
369
  8
0
 10
123.693130493164
 20
55.723960876465
 30
0.0000000000000284
 11
123.660576755215
 21
55.78484707963899
 31
0.0000000000000284
  0
LINE
  5
36A
  8
0
 10
123.723556518555
 20
55.661987304688
 30
0.0000000000000284
 11
123.693123734709
 21
55.72396085758599
 31
0.0000000000000284
  0
LINE
  5
36B
  8
0
 10
123.751831054688
 20
55.598999023438
 30
0.0000000000000284
 11
123.723555492268
 21
55.661986071005
 31
0.0000000000000284
  0
LINE
  5
36C
  8
0
 10
123.777923583984
 20
55.535079956055
 30
0.0000000000000284
 11
123.751838939513
 21
55.59900543543699
 31
0.0000000000000284
  0
LINE
  5
36D
  8
0
 10
123.801788330078
 20
55.470291137695
 30
0.0000000000000284
 11
123.777925689118
 21
55.53507886769
 31
0.0000000000000284
  0
LINE
  5
36E
  8
0
 10
123.823394775391
 20
55.40471649169901
 30
0.0000000000000284
 11
123.801782575503
 21
55.470289263544
 31
0.0000000000000284
  0
LINE
  5
36F
  8
0
 10
123.842727661133
 20
55.338432312012
 30
0.0000000000000284
 11
123.823391657984
 21
55.40471198139601
 31
0.0000000000000284
  0
LINE
  5
370
  8
0
 10
123.859771728516
 20
55.271530151367
 30
0.0000000000000284
 11
123.842734965187
 21
55.338437731556
 31
0.0000000000000284
  0
LINE
  5
371
  8
0
 10
123.874481201172
 20
55.204071044922
 30
0.0000000000000284
 11
123.859763980695
 21
55.271526800887
 31
0.0000000000000284
  0
LINE
  5
372
  8
0
 10
123.886871337891
 20
55.13614654541
 30
0.0000000000000284
 11
123.874491199056
 21
55.204070088853
 31
0.0000000000000284
  0
LINE
  5
373
  8
0
 10
123.896896362305
 20
55.067840576172
 30
0.0000000000000284
 11
123.886868058757
 21
55.136150961322
 31
0.0000000000000284
  0
LINE
  5
374
  8
0
 10
123.904556274414
 20
54.999221801758
 30
0.0000000000000284
 11
123.896891757073
 21
55.067837621839
 31
0.0000000000000284
  0
LINE
  5
375
  8
0
 10
123.909851074219
 20
54.930381774902
 30
0.0000000000000284
 11
123.904559477034
 21
54.99922125914399
 31
0.0000000000000284
  0
LINE
  5
376
  8
0
 10
123.91276550293
 20
54.861404418945
 30
0.0000000000000284
 11
123.909853131998
 21
54.930385530034
 31
0.0000000000000284
  0
LINE
  5
377
  8
0
 10
123.913299560547
 20
54.792358398438
 30
0.0000000000000284
 11
123.912769886596
 21
54.86139893027899
 31
0.0000000000000284
  0
LINE
  5
378
  8
0
 10
123.911437988281
 20
54.723342895508
 30
0.0000000000000284
 11
123.913291642533
 21
54.792360571196
 31
0.0000000000000284
  0
LINE
  5
379
  8
0
 10
123.907211303711
 20
54.654434204102
 30
0.0000000000000284
 11
123.911446077131
 21
54.72334677396699
 31
0.0000000000000284
  0
LINE
  5
37A
  8
0
 10
123.900588989258
 20
54.58570861816401
 30
0.0000000000000284
 11
123.907199835186
 21
54.654433957796
 31
0.0000000000000284
  0
LINE
  5
37B
  8
0
 10
123.891616821289
 20
54.517250061035
 30
0.0000000000000284
 11
123.900595861456
 21
54.58570626914801
 31
0.0000000000000284
  0
LINE
  5
37C
  8
0
 10
123.880279541016
 20
54.449142456055
 30
0.0000000000000284
 11
123.891616074929
 21
54.51724795209
 31
0.0000000000000284
  0
LINE
  5
37D
  8
0
 10
123.866592407227
 20
54.381469726562
 30
0.0000000000000284
 11
123.880272924925
 21
54.449143347915
 31
0.0000000000000284
  0
LINE
  5
37E
  8
0
 10
123.8505859375
 20
54.31430816650401
 30
0.0000000000000284
 11
123.866594135652
 21
54.38146926524
 31
0.0000000000000284
  0
LINE
  5
37F
  8
0
 10
123.832275390625
 20
54.24774169921901
 30
0.0000000000000284
 11
123.850592191958
 21
54.31431023818701
 31
0.0000000000000284
  0
LINE
  5
380
  8
0
 10
123.811676025391
 20
54.181846618652
 30
0.0000000000000284
 11
123.832279601426
 21
54.247743266867
 31
0.0000000000000284
  0
LINE
  5
381
  8
0
 10
123.788803100586
 20
54.11669921875
 30
0.0000000000000284
 11
123.811668897654
 21
54.181845445931
 31
0.0000000000000284
  0
LINE
  5
382
  8
0
 10
123.763702392578
 20
54.052383422852
 30
0.0000000000000284
 11
123.788803161075
 21
54.116701593008
 31
0.0000000000000284
  0
LINE
  5
383
  8
0
 10
123.736404418945
 20
53.988967895508
 30
0.0000000000000284
 11
123.763710245812
 21
54.05238135946099
 31
0.0000000000000284
  0
LINE
  5
384
  8
0
 10
123.706924438477
 20
53.92653656005901
 30
0.0000000000000284
 11
123.736402782842
 21
53.988969746786
 31
0.0000000000000284
  0
LINE
  5
385
  8
0
 10
123.675308227539
 20
53.865158081055
 30
0.0000000000000284
 11
123.706923959504
 21
53.92653658774699
 31
0.0000000000000284
  0
LINE
  5
386
  8
0
 10
123.641586303711
 20
53.804901123047
 30
0.0000000000000284
 11
123.67530174621
 21
53.86515180377801
 31
0.0000000000000284
  0
LINE
  5
387
  8
0
 10
123.605819702148
 20
53.745849609375
 30
0.0000000000000284
 11
123.641594675852
 21
53.80490066227
 31
0.0000000000000284
  0
LINE
  5
388
  8
0
 10
123.568023681641
 20
53.68807220459
 30
0.0000000000000284
 11
123.605815552836
 21
53.74585325739299
 31
0.0000000000000284
  0
LINE
  5
389
  8
0
 10
123.528259277344
 20
53.631629943848
 30
0.0000000000000284
 11
123.568023008744
 21
53.68807213778599
 31
0.0000000000000284
  0
LINE
  5
38A
  8
0
 10
123.486572265625
 20
53.57659149169901
 30
0.0000000000000284
 11
123.52826047004
 21
53.631627563544
 31
0.0000000000000284
  0
LINE
  5
38B
  8
0
 10
123.443008422852
 20
53.52303314209
 30
0.0000000000000284
 11
123.48657141966
 21
53.57659750431399
 31
0.0000000000000284
  0
LINE
  5
38C
  8
0
 10
123.397613525391
 20
53.471000671387
 30
0.0000000000000284
 11
123.442999399746
 21
53.523029490328
 31
0.0000000000000284
  0
LINE
  5
38D
  8
0
 10
123.350463867188
 20
53.420570373535
 30
0.0000000000000284
 11
123.397618531886
 21
53.471001645466
 31
0.0000000000000284
  0
LINE
  5
38E
  8
0
 10
123.301605224609
 20
53.371795654297
 30
0.0000000000000284
 11
123.350472484546
 21
53.420569279318
 31
0.0000000000000284
  0
LINE
  5
38F
  8
0
 10
123.251083374023
 20
53.324737548828
 30
0.0000000000000284
 11
123.301604993161
 21
53.371795402489
 31
0.0000000000000284
  0
LINE
  5
390
  8
0
 10
123.198959350586
 20
53.27944946289099
 30
0.0000000000000284
 11
123.251075121355
 21
53.32473546545801
 31
0.0000000000000284
  0
LINE
  5
391
  8
0
 10
120.134780883789
 20
50.708305358887
 30
0.0000000000000284
 11
123.198958656265
 21
53.27945579763301
 31
0.0000000000000284
  0
LINE
  5
392
  8
0
 10
120.081130981445
 20
50.664840698242
 30
0.0000000000000284
 11
120.134778796498
 21
50.708300881531
 31
0.0000000000000284
  0
LINE
  5
393
  8
0
 10
120.026016235352
 20
50.623260498047
 30
0.0000000000000284
 11
120.081132161573
 21
50.664843069735
 31
0.0000000000000284
  0
LINE
  5
394
  8
0
 10
119.969497680664
 20
50.583602905273
 30
0.0000000000000284
 11
120.026016035363
 21
50.623258310624
 31
0.0000000000000284
  0
LINE
  5
395
  8
0
 10
119.911651611328
 20
50.54592132568401
 30
0.0000000000000284
 11
119.969505040514
 21
50.58360230660099
 31
0.0000000000000284
  0
LINE
  5
396
  8
0
 10
119.852523803711
 20
50.510261535645
 30
0.0000000000000284
 11
119.911643362358
 21
50.545923186992
 31
0.0000000000000284
  0
LINE
  5
397
  8
0
 10
119.792205810547
 20
50.47666168212901
 30
0.0000000000000284
 11
119.85252104476
 21
50.510261505242
 31
0.0000000000000284
  0
LINE
  5
398
  8
0
 10
119.730773925781
 20
50.44515991210901
 30
0.0000000000000284
 11
119.792212956756
 21
50.47665786544501
 31
0.0000000000000284
  0
LINE
  5
399
  8
0
 10
119.66828918457
 20
50.415802001953
 30
0.0000000000000284
 11
119.730778794253
 21
50.445160548804
 31
0.0000000000000284
  0
LINE
  5
39A
  8
0
 10
119.60481262207
 20
50.388618469238
 30
0.0000000000000284
 11
119.668278340411
 21
50.415802622469
 31
0.0000000000000284
  0
LINE
  5
39B
  8
0
 10
119.540451049805
 20
50.363639831543
 30
0.0000000000000284
 11
119.604817243508
 21
50.388617195286
 31
0.0000000000000284
  0
LINE
  5
39C
  8
0
 10
119.47526550293
 20
50.34090423584
 30
0.0000000000000284
 11
119.540455465587
 21
50.363645044097
 31
0.0000000000000284
  0
LINE
  5
39D
  8
0
 10
119.409332275391
 20
50.320426940918
 30
0.0000000000000284
 11
119.475268318891
 21
50.34090409304
 31
0.0000000000000284
  0
LINE
  5
39E
  8
0
 10
119.342727661133
 20
50.302238464355
 30
0.0000000000000284
 11
119.409331208246
 21
50.320427557332
 31
0.0000000000000284
  0
LINE
  5
39F
  8
0
 10
119.275527954102
 20
50.28635406494099
 30
0.0000000000000284
 11
119.342719632123
 21
50.30223342248701
 31
0.0000000000000284
  0
LINE
  5
3A0
  8
0
 10
119.207824707031
 20
50.27280426025401
 30
0.0000000000000284
 11
119.275524442369
 21
50.286354958638
 31
0.0000000000000284
  0
LINE
  5
3A1
  8
0
 10
119.139709472656
 20
50.261596679688
 30
0.0000000000000284
 11
119.207836586255
 21
50.272802570287
 31
0.0000000000000284
  0
LINE
  5
3A2
  8
0
 10
119.071228027344
 20
50.25275421142599
 30
0.0000000000000284
 11
119.139701330835
 21
50.261601939969
 31
0.0000000000000284
  0
LINE
  5
3A3
  8
0
 10
119.002487182617
 20
50.24627685546901
 30
0.0000000000000284
 11
119.071225075072
 21
50.25275587794999
 31
0.0000000000000284
  0
LINE
  5
3A4
  8
0
 10
118.933578491211
 20
50.24217224121099
 30
0.0000000000000284
 11
119.002499056383
 21
50.246274836457
 31
0.0000000000000284
  0
LINE
  5
3A5
  8
0
 10
118.864547729492
 20
50.240447998047
 30
0.0000000000000284
 11
118.933568833442
 21
50.242169276917
 31
0.0000000000000284
  0
LINE
  5
3A6
  8
0
 10
262.795501708984
 20
43.241111755371
 30
0.0000000000000284
 11
262.864541097958
 21
43.240449666585
 31
0.0000000000000284
  0
LINE
  5
3A7
  8
0
 10
262.726531982422
 20
43.244155883789
 30
0.0000000000000284
 11
262.795507380875
 21
43.241111216371
 31
0.0000000000000284
  0
LINE
  5
3A8
  8
0
 10
262.65771484375
 20
43.249580383301
 30
0.0000000000000284
 11
262.726544052396
 21
43.244156765638
 31
0.0000000000000284
  0
LINE
  5
3A9
  8
0
 10
262.589111328125
 20
43.257377624512
 30
0.0000000000000284
 11
262.657712321896
 21
43.249581520032
 31
0.0000000000000284
  0
LINE
  5
3AA
  8
0
 10
262.520812988281
 20
43.26753616333
 30
0.0000000000000284
 11
262.589104014076
 21
43.257376862799
 31
0.0000000000000284
  0
LINE
  5
3AB
  8
0
 10
262.452911376953
 20
43.280044555664
 30
0.0000000000000284
 11
262.520811051066
 21
43.267534166111
 31
0.0000000000000284
  0
LINE
  5
3AC
  8
0
 10
262.385498046875
 20
43.294891357422
 30
0.0000000000000284
 11
262.452925451981
 21
43.280044787715
 31
0.0000000000000284
  0
LINE
  5
3AD
  8
0
 10
262.318603515625
 20
43.312057495117
 30
0.0000000000000284
 11
262.385478297212
 21
43.294892438194
 31
0.0000000000000284
  0
LINE
  5
3AE
  8
0
 10
262.252380371094
 20
43.331520080566
 30
0.0000000000000284
 11
262.31862283322
 21
43.31205699235
 31
0.0000000000000284
  0
LINE
  5
3AF
  8
0
 10
262.186828613281
 20
43.353260040283
 30
0.0000000000000284
 11
262.252359813553
 21
43.331522115303
 31
0.0000000000000284
  0
LINE
  5
3B0
  8
0
 10
262.122100830078
 20
43.377246856689
 30
0.0000000000000284
 11
262.186842673725
 21
43.353260000442
 31
0.0000000000000284
  0
LINE
  5
3B1
  8
0
 10
262.058227539062
 20
43.403453826904
 30
0.0000000000000284
 11
262.122102872007
 21
43.377246624979
 31
0.0000000000000284
  0
LINE
  5
3B2
  8
0
 10
261.995300292969
 20
43.431846618652
 30
0.0000000000000284
 11
262.058232993768
 21
43.403450302668
 31
0.0000000000000284
  0
LINE
  5
3B3
  8
0
 10
261.933380126953
 20
43.462398529053
 30
0.0000000000000284
 11
261.99529519752
 21
43.431846939435
 31
0.0000000000000284
  0
LINE
  5
3B4
  8
0
 10
261.87255859375
 20
43.495071411133
 30
0.0000000000000284
 11
261.933382248724
 21
43.462400956788
 31
0.0000000000000284
  0
LINE
  5
3B5
  8
0
 10
261.812896728516
 20
43.529819488525
 30
0.0000000000000284
 11
261.872556483197
 21
43.495069103452
 31
0.0000000000000284
  0
LINE
  5
3B6
  8
0
 10
261.754455566406
 20
43.566608428955
 30
0.0000000000000284
 11
261.812880323139
 21
43.529819525843
 31
0.0000000000000284
  0
LINE
  5
3B7
  8
0
 10
261.697357177734
 20
43.605392456055
 30
0.0000000000000284
 11
261.754477310632
 21
43.566608876936
 31
0.0000000000000284
  0
LINE
  5
3B8
  8
0
 10
261.6416015625
 20
43.646125793457
 30
0.0000000000000284
 11
261.697349000419
 21
43.605393757455
 31
0.0000000000000284
  0
LINE
  5
3B9
  8
0
 10
261.587280273438
 20
43.688758850098
 30
0.0000000000000284
 11
261.641588581104
 21
43.64612689835
 31
0.0000000000000284
  0
LINE
  5
3BA
  8
0
 10
261.534484863281
 20
43.733238220215
 30
0.0000000000000284
 11
261.587289320459
 21
43.688757158024
 31
0.0000000000000284
  0
LINE
  5
3BB
  8
0
 10
261.483245849609
 20
43.779514312744
 30
0.0000000000000284
 11
261.534483528228
 21
43.733237149032
 31
0.0000000000000284
  0
LINE
  5
3BC
  8
0
 10
261.433624267578
 20
43.827533721924
 30
0.0000000000000284
 11
261.483234106728
 21
43.779515606062
 31
0.0000000000000284
  0
LINE
  5
3BD
  8
0
 10
261.385711669922
 20
43.877235412598
 30
0.0000000000000284
 11
261.43363454862
 21
43.827533568681
 31
0.0000000000000284
  0
LINE
  5
3BE
  8
0
 10
261.339538574219
 20
43.928562164307
 30
0.0000000000000284
 11
261.385717381865
 21
43.877235822962
 31
0.0000000000000284
  0
LINE
  5
3BF
  8
0
 10
261.295166015625
 20
43.981452941895
 30
0.0000000000000284
 11
261.339545720062
 21
43.928563269694
 31
0.0000000000000284
  0
LINE
  5
3C0
  8
0
 10
261.252624511719
 20
44.035842895508
 30
0.0000000000000284
 11
261.295152224814
 21
43.981452922072
 31
0.0000000000000284
  0
LINE
  5
3C1
  8
0
 10
261.212005615234
 20
44.091667175293
 30
0.0000000000000284
 11
261.252630655908
 21
44.035841718181
 31
0.0000000000000284
  0
LINE
  5
3C2
  8
0
 10
261.17333984375
 20
44.14886474609401
 30
0.0000000000000284
 11
261.212013798373
 21
44.09167033355899
 31
0.0000000000000284
  0
LINE
  5
3C3
  8
0
 10
261.136657714844
 20
44.207359313965
 30
0.0000000000000284
 11
261.173334494935
 21
44.14886410566901
 31
0.0000000000000284
  0
LINE
  5
3C4
  8
0
 10
261.102020263672
 20
44.267082214355
 30
0.0000000000000284
 11
261.136656160818
 21
44.207355920143
 31
0.0000000000000284
  0
LINE
  5
3C5
  8
0
 10
261.069458007812
 20
44.32797241210901
 30
0.0000000000000284
 11
261.102011745761
 21
44.267086208935
 31
0.0000000000000284
  0
LINE
  5
3C6
  8
0
 10
261.039031982422
 20
44.389945983887
 30
0.0000000000000284
 11
261.069464766268
 21
44.32797243098901
 31
0.0000000000000284
  0
LINE
  5
3C7
  8
0
 10
261.0107421875
 20
44.452926635742
 30
0.0000000000000284
 11
261.03901774992
 21
44.389939588175
 31
0.0000000000000284
  0
LINE
  5
3C8
  8
0
 10
260.984680175781
 20
44.51685333252
 30
0.0000000000000284
 11
261.010764820253
 21
44.45292785313799
 31
0.0000000000000284
  0
LINE
  5
3C9
  8
0
 10
260.960815429688
 20
44.58164215087901
 30
0.0000000000000284
 11
260.984678070647
 21
44.516854420884
 31
0.0000000000000284
  0
LINE
  5
3CA
  8
0
 10
260.939208984375
 20
44.647216796875
 30
0.0000000000000284
 11
260.960821184263
 21
44.58164402503
 31
0.0000000000000284
  0
LINE
  5
3CB
  8
0
 10
260.919860839844
 20
44.713493347168
 30
0.0000000000000284
 11
260.939196842992
 21
44.64721367778399
 31
0.0000000000000284
  0
LINE
  5
3CC
  8
0
 10
260.90283203125
 20
44.780403137207
 30
0.0000000000000284
 11
260.919868794579
 21
44.71349555701801
 31
0.0000000000000284
  0
LINE
  5
3CD
  8
0
 10
260.888092041016
 20
44.847862243652
 30
0.0000000000000284
 11
260.902809261492
 21
44.780406487687
 31
0.0000000000000284
  0
LINE
  5
3CE
  8
0
 10
260.875732421875
 20
44.91577911377
 30
0.0000000000000284
 11
260.88811256071
 21
44.847855570326
 31
0.0000000000000284
  0
LINE
  5
3CF
  8
0
 10
260.865692138672
 20
44.984092712402
 30
0.0000000000000284
 11
260.875720442219
 21
44.915782327252
 31
0.0000000000000284
  0
LINE
  5
3D0
  8
0
 10
260.858032226562
 20
45.05271148681599
 30
0.0000000000000284
 11
260.865696743903
 21
44.984095666736
 31
0.0000000000000284
  0
LINE
  5
3D1
  8
0
 10
260.852752685547
 20
45.121551513672
 30
0.0000000000000284
 11
260.858044282731
 21
45.05271202943
 31
0.0000000000000284
  0
LINE
  5
3D2
  8
0
 10
260.849822998047
 20
45.19052886962901
 30
0.0000000000000284
 11
260.852735368978
 21
45.12154775854
 31
0.0000000000000284
  0
LINE
  5
3D3
  8
0
 10
260.849304199219
 20
45.259567260742
 30
0.0000000000000284
 11
260.84983387317
 21
45.19052672890101
 31
0.0000000000000284
  0
LINE
  5
3D4
  8
0
 10
260.851165771484
 20
45.32859039306599
 30
0.0000000000000284
 11
260.849312117233
 21
45.259572717379
 31
0.0000000000000284
  0
LINE
  5
3D5
  8
0
 10
260.855377197266
 20
45.397499084473
 30
0.0000000000000284
 11
260.851142423846
 21
45.328586514607
 31
0.0000000000000284
  0
LINE
  5
3D6
  8
0
 10
260.861999511719
 20
45.46622467041
 30
0.0000000000000284
 11
260.855388665791
 21
45.397499330778
 31
0.0000000000000284
  0
LINE
  5
3D7
  8
0
 10
260.870971679688
 20
45.53468322753901
 30
0.0000000000000284
 11
260.861992639521
 21
45.466227019427
 31
0.0000000000000284
  0
LINE
  5
3D8
  8
0
 10
260.88232421875
 20
45.602783203125
 30
0.0000000000000284
 11
260.870987684837
 21
45.534677707089
 31
0.0000000000000284
  0
LINE
  5
3D9
  8
0
 10
260.89599609375
 20
45.670463562012
 30
0.0000000000000284
 11
260.882315576052
 21
45.60278994065899
 31
0.0000000000000284
  0
LINE
  5
3DA
  8
0
 10
260.912017822266
 20
45.73762512207
 30
0.0000000000000284
 11
260.896009624114
 21
45.670464023335
 31
0.0000000000000284
  0
LINE
  5
3DB
  8
0
 10
260.930328369141
 20
45.804191589355
 30
0.0000000000000284
 11
260.912011567808
 21
45.737623050387
 31
0.0000000000000284
  0
LINE
  5
3DC
  8
0
 10
260.950927734375
 20
45.870086669922
 30
0.0000000000000284
 11
260.930324158339
 21
45.804190021707
 31
0.0000000000000284
  0
LINE
  5
3DD
  8
0
 10
260.973785400391
 20
45.93523406982401
 30
0.0000000000000284
 11
260.950919603323
 21
45.870087842643
 31
0.0000000000000284
  0
LINE
  5
3DE
  8
0
 10
260.998901367188
 20
45.999549865723
 30
0.0000000000000284
 11
260.97380059869
 21
45.935231695566
 31
0.0000000000000284
  0
LINE
  5
3DF
  8
0
 10
261.026184082031
 20
46.06296539306599
 30
0.0000000000000284
 11
260.998878255165
 21
45.999551929113
 31
0.0000000000000284
  0
LINE
  5
3E0
  8
0
 10
261.0556640625
 20
46.12539672851599
 30
0.0000000000000284
 11
261.026185718134
 21
46.062963541789
 31
0.0000000000000284
  0
LINE
  5
3E1
  8
0
 10
261.087280273438
 20
46.18677520752
 30
0.0000000000000284
 11
261.055664541472
 21
46.12539670082801
 31
0.0000000000000284
  0
LINE
  5
3E2
  8
0
 10
261.121002197266
 20
46.247024536133
 30
0.0000000000000284
 11
261.087286754766
 21
46.186773855402
 31
0.0000000000000284
  0
LINE
  5
3E3
  8
0
 10
261.156768798828
 20
46.306076049805
 30
0.0000000000000284
 11
261.120993825125
 21
46.24702499691
 31
0.0000000000000284
  0
LINE
  5
3E4
  8
0
 10
261.194580078125
 20
46.36386108398401
 30
0.0000000000000284
 11
261.15678820693
 21
46.30608003118201
 31
0.0000000000000284
  0
LINE
  5
3E5
  8
0
 10
261.234344482422
 20
46.420303344727
 30
0.0000000000000284
 11
261.194580751022
 21
46.363861150788
 31
0.0000000000000284
  0
LINE
  5
3E6
  8
0
 10
261.276031494141
 20
46.47533416748
 30
0.0000000000000284
 11
261.234343289726
 21
46.420298095636
 31
0.0000000000000284
  0
LINE
  5
3E7
  8
0
 10
261.319580078125
 20
46.52890014648401
 30
0.0000000000000284
 11
261.276017081317
 21
46.47533578426
 31
0.0000000000000284
  0
LINE
  5
3E8
  8
0
 10
261.364959716797
 20
46.580932617188
 30
0.0000000000000284
 11
261.319573842441
 21
46.52890379824601
 31
0.0000000000000284
  0
LINE
  5
3E9
  8
0
 10
261.412139892578
 20
46.63136291503901
 30
0.0000000000000284
 11
261.36498522788
 21
46.580931643108
 31
0.0000000000000284
  0
LINE
  5
3EA
  8
0
 10
261.460998535156
 20
46.680137634277
 30
0.0000000000000284
 11
261.41213127522
 21
46.631364009256
 31
0.0000000000000284
  0
LINE
  5
3EB
  8
0
 10
261.511505126953
 20
46.72719573974599
 30
0.0000000000000284
 11
261.460983507816
 21
46.68013788608501
 31
0.0000000000000284
  0
LINE
  5
3EC
  8
0
 10
261.563629150391
 20
46.77247619628901
 30
0.0000000000000284
 11
261.511513379621
 21
46.727190193722
 31
0.0000000000000284
  0
LINE
  5
3ED
  8
0
 10
264.627807617188
 20
49.343627929688
 30
0.0000000000000284
 11
261.563629844712
 21
46.772477490941
 31
0.0000000000000284
  0
LINE
  5
3EE
  8
0
 10
264.681457519531
 20
49.387092590332
 30
0.0000000000000284
 11
264.627809704478
 21
49.343632407044
 31
0.0000000000000284
  0
LINE
  5
3EF
  8
0
 10
264.736572265625
 20
49.428672790527
 30
0.0000000000000284
 11
264.681456339403
 21
49.38709021884
 31
0.0000000000000284
  0
LINE
  5
3F0
  8
0
 10
264.793090820312
 20
49.46833038330099
 30
0.0000000000000284
 11
264.736572465613
 21
49.42867497795
 31
0.0000000000000284
  0
LINE
  5
3F1
  8
0
 10
264.850952148438
 20
49.50601196289099
 30
0.0000000000000284
 11
264.793098719252
 21
49.468330981973
 31
0.0000000000000284
  0
LINE
  5
3F2
  8
0
 10
264.910064697266
 20
49.54167175293
 30
0.0000000000000284
 11
264.850945138619
 21
49.50601010158201
 31
0.0000000000000284
  0
LINE
  5
3F3
  8
0
 10
264.970367431641
 20
49.575271606445
 30
0.0000000000000284
 11
264.910052197428
 21
49.54167178333201
 31
0.0000000000000284
  0
LINE
  5
3F4
  8
0
 10
265.031829833984
 20
49.60676574707
 30
0.0000000000000284
 11
264.970390803009
 21
49.57526779373499
 31
0.0000000000000284
  0
LINE
  5
3F5
  8
0
 10
265.094299316406
 20
49.636123657227
 30
0.0000000000000284
 11
265.031809706724
 21
49.606765110376
 31
0.0000000000000284
  0
LINE
  5
3F6
  8
0
 10
265.157775878906
 20
49.66331481933599
 30
0.0000000000000284
 11
265.094310160565
 21
49.636130666105
 31
0.0000000000000284
  0
LINE
  5
3F7
  8
0
 10
265.222137451172
 20
49.688285827637
 30
0.0000000000000284
 11
265.157771257468
 21
49.663308463894
 31
0.0000000000000284
  0
LINE
  5
3F8
  8
0
 10
265.287322998047
 20
49.71102905273401
 30
0.0000000000000284
 11
265.22213303539
 21
49.68828824447699
 31
0.0000000000000284
  0
LINE
  5
3F9
  8
0
 10
265.353271484375
 20
49.73150634765599
 30
0.0000000000000284
 11
265.287335440875
 21
49.711029195535
 31
0.0000000000000284
  0
LINE
  5
3FA
  8
0
 10
265.419860839844
 20
49.74969482421901
 30
0.0000000000000284
 11
265.35325729273
 21
49.731505731242
 31
0.0000000000000284
  0
LINE
  5
3FB
  8
0
 10
265.487060546875
 20
49.765571594238
 30
0.0000000000000284
 11
265.419868868853
 21
49.74969223669299
 31
0.0000000000000284
  0
LINE
  5
3FC
  8
0
 10
265.554748535156
 20
49.77912902832
 30
0.0000000000000284
 11
265.487048799819
 21
49.76557832993601
 31
0.0000000000000284
  0
LINE
  5
3FD
  8
0
 10
265.622894287109
 20
49.790328979492
 30
0.0000000000000284
 11
265.55476717351
 21
49.779123088893
 31
0.0000000000000284
  0
LINE
  5
3FE
  8
0
 10
265.691375732422
 20
49.799179077148
 30
0.0000000000000284
 11
265.62290242893
 21
49.790331348606
 31
0.0000000000000284
  0
LINE
  5
3FF
  8
0
 10
265.760101318359
 20
49.805656433105
 30
0.0000000000000284
 11
265.691363425905
 21
49.799177410624
 31
0.0000000000000284
  0
LINE
  5
400
  8
0
 10
265.829010009766
 20
49.809761047363
 30
0.0000000000000284
 11
265.760089444593
 21
49.805658452117
 31
0.0000000000000284
  0
LINE
  5
401
  8
0
 10
265.898040771484
 20
49.811485290527
 30
0.0000000000000284
 11
265.829019667534
 21
49.80976401165699
 31
0.0000000000000284
  0
LINE
  5
402
  8
0
 10
265.967071533203
 20
49.810821533203
 30
0.0000000000000284
 11
265.898032144229
 21
49.811483621989
 31
0.0000000000000284
  0
LINE
  5
403
  8
0
 10
266.036071777344
 20
49.807777404785
 30
0.0000000000000284
 11
265.967096378891
 21
49.810822072203
 31
0.0000000000000284
  0
LINE
  5
404
  8
0
 10
266.104888916016
 20
49.802352905273
 30
0.0000000000000284
 11
266.036059707369
 21
49.807776522936
 31
0.0000000000000284
  0
LINE
  5
405
  8
0
 10
266.173492431641
 20
49.794555664062
 30
0.0000000000000284
 11
266.10489143787
 21
49.802351768542
 31
0.0000000000000284
  0
LINE
  5
406
  8
0
 10
266.241790771484
 20
49.784393310547
 30
0.0000000000000284
 11
266.173499745689
 21
49.794552611078
 31
0.0000000000000284
  0
LINE
  5
407
  8
0
 10
266.309692382812
 20
49.77188873291
 30
0.0000000000000284
 11
266.241792708699
 21
49.784399122463
 31
0.0000000000000284
  0
LINE
  5
408
  8
0
 10
266.377105712891
 20
49.757041931152
 30
0.0000000000000284
 11
266.309678307784
 21
49.77188850085901
 31
0.0000000000000284
  0
LINE
  5
409
  8
0
 10
266.443969726562
 20
49.739875793457
 30
0.0000000000000284
 11
266.377094944976
 21
49.75704085037999
 31
0.0000000000000284
  0
LINE
  5
40A
  8
0
 10
266.510223388672
 20
49.720413208008
 30
0.0000000000000284
 11
266.443980926546
 21
49.739876296224
 31
0.0000000000000284
  0
LINE
  5
40B
  8
0
 10
266.575744628906
 20
49.698677062988
 30
0.0000000000000284
 11
266.510213428635
 21
49.720414987968
 31
0.0000000000000284
  0
LINE
  5
40C
  8
0
 10
266.640502929688
 20
49.674682617188
 30
0.0000000000000284
 11
266.575761086041
 21
49.698669473435
 31
0.0000000000000284
  0
LINE
  5
40D
  8
0
 10
266.704376220703
 20
49.648475646973
 30
0.0000000000000284
 11
266.640500887759
 21
49.674682848898
 31
0.0000000000000284
  0
LINE
  5
40E
  8
0
 10
266.767303466797
 20
49.620086669922
 30
0.0000000000000284
 11
266.704370765997
 21
49.648482985906
 31
0.0000000000000284
  0
LINE
  5
40F
  8
0
 10
266.829223632812
 20
49.58953094482401
 30
0.0000000000000284
 11
266.767308562246
 21
49.62008253444201
 31
0.0000000000000284
  0
LINE
  5
410
  8
0
 10
266.890045166016
 20
49.55686187744099
 30
0.0000000000000284
 11
266.829221511042
 21
49.589532331786
 31
0.0000000000000284
  0
LINE
  5
411
  8
0
 10
266.94970703125
 20
49.522109985352
 30
0.0000000000000284
 11
266.890047276568
 21
49.556860370425
 31
0.0000000000000284
  0
LINE
  5
412
  8
0
 10
267.008117675781
 20
49.485321044922
 30
0.0000000000000284
 11
266.949692919048
 21
49.52210994803301
 31
0.0000000000000284
  0
LINE
  5
413
  8
0
 10
267.065246582031
 20
49.44654083252
 30
0.0000000000000284
 11
267.008126449134
 21
49.485324411638
 31
0.0000000000000284
  0
LINE
  5
414
  8
0
 10
267.121002197266
 20
49.405807495117
 30
0.0000000000000284
 11
267.065254759346
 21
49.446539531119
 31
0.0000000000000284
  0
LINE
  5
415
  8
0
 10
267.17529296875
 20
49.363174438477
 30
0.0000000000000284
 11
267.120984661083
 21
49.405806390224
 31
0.0000000000000284
  0
LINE
  5
416
  8
0
 10
267.228118896484
 20
49.31869506835901
 30
0.0000000000000284
 11
267.175314439307
 21
49.36317613055
 31
0.0000000000000284
  0
LINE
  5
417
  8
0
 10
267.279357910156
 20
49.272415161133
 30
0.0000000000000284
 11
267.228120231538
 21
49.318692324845
 31
0.0000000000000284
  0
LINE
  5
418
  8
0
 10
267.328948974609
 20
49.224395751953
 30
0.0000000000000284
 11
267.27933913546
 21
49.272413867815
 31
0.0000000000000284
  0
LINE
  5
419
  8
0
 10
267.376892089844
 20
49.174697875977
 30
0.0000000000000284
 11
267.328969211145
 21
49.224399719893
 31
0.0000000000000284
  0
LINE
  5
41A
  8
0
 10
267.423065185547
 20
49.12336730957
 30
0.0000000000000284
 11
267.3768863779
 21
49.174693650915
 31
0.0000000000000284
  0
LINE
  5
41B
  8
0
 10
267.467437744141
 20
49.07048034668
 30
0.0000000000000284
 11
267.423058039704
 21
49.123370018881
 31
0.0000000000000284
  0
LINE
  5
41C
  8
0
 10
267.509948730469
 20
49.01609039306599
 30
0.0000000000000284
 11
267.467421017374
 21
49.070480366502
 31
0.0000000000000284
  0
LINE
  5
41D
  8
0
 10
267.550598144531
 20
48.96026611328099
 30
0.0000000000000284
 11
267.509973103858
 21
49.016091570393
 31
0.0000000000000284
  0
LINE
  5
41E
  8
0
 10
267.589263916016
 20
48.90306854248
 30
0.0000000000000284
 11
267.550589961392
 21
48.960262955015
 31
0.0000000000000284
  0
LINE
  5
41F
  8
0
 10
267.625946044922
 20
48.84457397460901
 30
0.0000000000000284
 11
267.589269264831
 21
48.903069182905
 31
0.0000000000000284
  0
LINE
  5
420
  8
0
 10
267.660583496094
 20
48.78485107421901
 30
0.0000000000000284
 11
267.625947598947
 21
48.844577368431
 31
0.0000000000000284
  0
LINE
  5
421
  8
0
 10
267.693115234375
 20
48.723960876465
 30
0.0000000000000284
 11
267.660561496426
 21
48.78484707963899
 31
0.0000000000000284
  0
LINE
  5
422
  8
0
 10
267.723571777344
 20
48.661987304688
 30
0.0000000000000284
 11
267.693138993498
 21
48.72396085758599
 31
0.0000000000000284
  0
LINE
  5
423
  8
0
 10
267.751831054688
 20
48.598999023438
 30
0.0000000000000284
 11
267.723555492268
 21
48.661986071005
 31
0.0000000000000284
  0
LINE
  5
424
  8
0
 10
267.777923583984
 20
48.535079956055
 30
0.0000000000000284
 11
267.751838939512
 21
48.59900543543699
 31
0.0000000000000284
  0
LINE
  5
425
  8
0
 10
267.801788330078
 20
48.470291137695
 30
0.0000000000000284
 11
267.777925689118
 21
48.53507886769
 31
0.0000000000000284
  0
LINE
  5
426
  8
0
 10
267.823394775391
 20
48.40471649169901
 30
0.0000000000000284
 11
267.801782575503
 21
48.470289263544
 31
0.0000000000000284
  0
LINE
  5
427
  8
0
 10
267.842742919922
 20
48.338432312012
 30
0.0000000000000284
 11
267.823406916773
 21
48.40471198139601
 31
0.0000000000000284
  0
LINE
  5
428
  8
0
 10
267.859771728516
 20
48.271530151367
 30
0.0000000000000284
 11
267.842734965186
 21
48.338437731556
 31
0.0000000000000284
  0
LINE
  5
429
  8
0
 10
267.874481201172
 20
48.204071044922
 30
0.0000000000000284
 11
267.859763980695
 21
48.271526800887
 31
0.0000000000000284
  0
LINE
  5
42A
  8
0
 10
267.886871337891
 20
48.13614654541
 30
0.0000000000000284
 11
267.874491199056
 21
48.204070088853
 31
0.0000000000000284
  0
LINE
  5
42B
  8
0
 10
267.896881103516
 20
48.067840576172
 30
0.0000000000000284
 11
267.886852799968
 21
48.136150961322
 31
0.0000000000000284
  0
LINE
  5
42C
  8
0
 10
267.904571533203
 20
47.999221801758
 30
0.0000000000000284
 11
267.896907015862
 21
48.067837621839
 31
0.0000000000000284
  0
LINE
  5
42D
  8
0
 10
267.909851074219
 20
47.930381774902
 30
0.0000000000000284
 11
267.904559477034
 21
47.99922125914399
 31
0.0000000000000284
  0
LINE
  5
42E
  8
0
 10
267.912750244141
 20
47.861404418945
 30
0.0000000000000284
 11
267.909837873209
 21
47.930385530034
 31
0.0000000000000284
  0
LINE
  5
42F
  8
0
 10
267.913299560547
 20
47.792358398438
 30
0.0000000000000284
 11
267.912769886596
 21
47.86139893027899
 31
0.0000000000000284
  0
LINE
  5
430
  8
0
 10
267.911437988281
 20
47.723342895508
 30
0.0000000000000284
 11
267.913291642533
 21
47.792360571196
 31
0.0000000000000284
  0
LINE
  5
431
  8
0
 10
267.907196044922
 20
47.654434204102
 30
0.0000000000000284
 11
267.911430818341
 21
47.72334677396699
 31
0.0000000000000284
  0
LINE
  5
432
  8
0
 10
267.900604248047
 20
47.58570861816401
 30
0.0000000000000284
 11
267.907215093975
 21
47.654433957796
 31
0.0000000000000284
  0
LINE
  5
433
  8
0
 10
267.8916015625
 20
47.517250061035
 30
0.0000000000000284
 11
267.900580602667
 21
47.58570626914801
 31
0.0000000000000284
  0
LINE
  5
434
  8
0
 10
267.880279541016
 20
47.449142456055
 30
0.0000000000000284
 11
267.891616074929
 21
47.51724795209
 31
0.0000000000000284
  0
LINE
  5
435
  8
0
 10
267.866607666016
 20
47.381469726562
 30
0.0000000000000284
 11
267.880288183714
 21
47.449143347915
 31
0.0000000000000284
  0
LINE
  5
436
  8
0
 10
267.8505859375
 20
47.31430816650401
 30
0.0000000000000284
 11
267.866594135652
 21
47.38146926524
 31
0.0000000000000284
  0
LINE
  5
437
  8
0
 10
267.832275390625
 20
47.24774169921901
 30
0.0000000000000284
 11
267.850592191958
 21
47.31431023818701
 31
0.0000000000000284
  0
LINE
  5
438
  8
0
 10
267.811676025391
 20
47.181846618652
 30
0.0000000000000284
 11
267.832279601426
 21
47.247743266867
 31
0.0000000000000284
  0
LINE
  5
439
  8
0
 10
267.788818359375
 20
47.11669921875
 30
0.0000000000000284
 11
267.811684156443
 21
47.181845445931
 31
0.0000000000000284
  0
LINE
  5
43A
  8
0
 10
267.763702392578
 20
47.052383422852
 30
0.0000000000000284
 11
267.788803161075
 21
47.116701593008
 31
0.0000000000000284
  0
LINE
  5
43B
  8
0
 10
267.736389160156
 20
46.988967895508
 30
0.0000000000000284
 11
267.763694987023
 21
47.05238135946099
 31
0.0000000000000284
  0
LINE
  5
43C
  8
0
 10
267.706909179688
 20
46.92653656005901
 30
0.0000000000000284
 11
267.736387524053
 21
46.988969746786
 31
0.0000000000000284
  0
LINE
  5
43D
  8
0
 10
267.67529296875
 20
46.865158081055
 30
0.0000000000000284
 11
267.706908700715
 21
46.92653658774699
 31
0.0000000000000284
  0
LINE
  5
43E
  8
0
 10
267.6416015625
 20
46.804901123047
 30
0.0000000000000284
 11
267.675317004999
 21
46.86515180377801
 31
0.0000000000000284
  0
LINE
  5
43F
  8
0
 10
267.605804443359
 20
46.745849609375
 30
0.0000000000000284
 11
267.641579417063
 21
46.80490066226901
 31
0.0000000000000284
  0
LINE
  5
440
  8
0
 10
267.568023681641
 20
46.68807220459
 30
0.0000000000000284
 11
267.605815552836
 21
46.74585325739299
 31
0.0000000000000284
  0
LINE
  5
441
  8
0
 10
267.528259277344
 20
46.631629943848
 30
0.0000000000000284
 11
267.568023008744
 21
46.68807213778599
 31
0.0000000000000284
  0
LINE
  5
442
  8
0
 10
267.486572265625
 20
46.57659149169901
 30
0.0000000000000284
 11
267.52826047004
 21
46.631627563544
 31
0.0000000000000284
  0
LINE
  5
443
  8
0
 10
267.442993164062
 20
46.52303314209
 30
0.0000000000000284
 11
267.486556160871
 21
46.57659750431399
 31
0.0000000000000284
  0
LINE
  5
444
  8
0
 10
267.397613525391
 20
46.471000671387
 30
0.0000000000000284
 11
267.442999399746
 21
46.523029490328
 31
0.0000000000000284
  0
LINE
  5
445
  8
0
 10
267.350463867188
 20
46.420570373535
 30
0.0000000000000284
 11
267.397618531886
 21
46.471001645466
 31
0.0000000000000284
  0
LINE
  5
446
  8
0
 10
267.301605224609
 20
46.371795654297
 30
0.0000000000000284
 11
267.350472484546
 21
46.420569279318
 31
0.0000000000000284
  0
LINE
  5
447
  8
0
 10
267.251068115234
 20
46.324737548828
 30
0.0000000000000284
 11
267.301589734372
 21
46.371795402489
 31
0.0000000000000284
  0
LINE
  5
448
  8
0
 10
267.198974609375
 20
46.27944946289099
 30
0.0000000000000284
 11
267.251090380144
 21
46.32473546545801
 31
0.0000000000000284
  0
LINE
  5
449
  8
0
 10
264.134796142578
 20
43.708301544189
 30
0.0000000000000284
 11
267.198973915054
 21
46.279451982936
 31
0.0000000000000284
  0
LINE
  5
44A
  8
0
 10
264.081146240234
 20
43.664840698242
 30
0.0000000000000284
 11
264.134794055288
 21
43.708300881531
 31
0.0000000000000284
  0
LINE
  5
44B
  8
0
 10
264.026031494141
 20
43.623260498047
 30
0.0000000000000284
 11
264.081147420362
 21
43.664843069735
 31
0.0000000000000284
  0
LINE
  5
44C
  8
0
 10
263.969512939453
 20
43.583602905273
 30
0.0000000000000284
 11
264.026031294152
 21
43.623258310624
 31
0.0000000000000284
  0
LINE
  5
44D
  8
0
 10
263.911651611328
 20
43.545921325684
 30
0.0000000000000284
 11
263.969505040514
 21
43.583602306601
 31
0.0000000000000284
  0
LINE
  5
44E
  8
0
 10
263.8525390625
 20
43.510261535645
 30
0.0000000000000284
 11
263.911658621147
 21
43.545923186992
 31
0.0000000000000284
  0
LINE
  5
44F
  8
0
 10
263.792205810547
 20
43.476661682129
 30
0.0000000000000284
 11
263.85252104476
 21
43.510261505242
 31
0.0000000000000284
  0
LINE
  5
450
  8
0
 10
263.730773925781
 20
43.445163726807
 30
0.0000000000000284
 11
263.792212956756
 21
43.476661680142
 31
0.0000000000000284
  0
LINE
  5
451
  8
0
 10
263.668273925781
 20
43.41580581665
 30
0.0000000000000284
 11
263.730763535464
 21
43.445164363501
 31
0.0000000000000284
  0
LINE
  5
452
  8
0
 10
263.604827880859
 20
43.388618469238
 30
0.0000000000000284
 11
263.6682935992
 21
43.41580262247
 31
0.0000000000000284
  0
LINE
  5
453
  8
0
 10
263.540466308594
 20
43.36364364624
 30
0.0000000000000284
 11
263.604832502297
 21
43.388621009983
 31
0.0000000000000284
  0
LINE
  5
454
  8
0
 10
263.475250244141
 20
43.340900421143
 30
0.0000000000000284
 11
263.540440206798
 21
43.3636412294
 31
0.0000000000000284
  0
LINE
  5
455
  8
0
 10
263.409332275391
 20
43.320423126221
 30
0.0000000000000284
 11
263.475268318891
 21
43.340900278342
 31
0.0000000000000284
  0
LINE
  5
456
  8
0
 10
263.342712402344
 20
43.302234649658
 30
0.0000000000000284
 11
263.409315949458
 21
43.320423742635
 31
0.0000000000000284
  0
LINE
  5
457
  8
0
 10
263.275543212891
 20
43.286357879639
 30
0.0000000000000284
 11
263.342734890912
 21
43.302237237184
 31
0.0000000000000284
  0
LINE
  5
458
  8
0
 10
263.207824707031
 20
43.272804260254
 30
0.0000000000000284
 11
263.275524442369
 21
43.286354958638
 31
0.0000000000000284
  0
LINE
  5
459
  8
0
 10
263.139709472656
 20
43.261600494385
 30
0.0000000000000284
 11
263.207836586255
 21
43.272806384984
 31
0.0000000000000284
  0
LINE
  5
45A
  8
0
 10
263.071228027344
 20
43.252750396729
 30
0.0000000000000284
 11
263.139701330835
 21
43.261598125271
 31
0.0000000000000284
  0
LINE
  5
45B
  8
0
 10
263.002502441406
 20
43.246273040771
 30
0.0000000000000284
 11
263.071240333861
 21
43.252752063253
 31
0.0000000000000284
  0
LINE
  5
45C
  8
0
 10
262.933563232422
 20
43.242172241211
 30
0.0000000000000284
 11
263.002483797594
 21
43.246274836457
 31
0.0000000000000284
  0
LINE
  5
45D
  8
0
 10
262.864562988281
 20
43.240447998047
 30
0.0000000000000284
 11
262.933584092231
 21
43.242169276917
 31
0.0000000000000284
  0
ARC
  5
45E
  8
0
 10
128.579193115234
 20
46.51523590087901
 30
0.0000000000000284
 40
22.210670681312
 50
134.580001499046
 51
206.737514397644
  0
ARC
  5
45F
  8
0
 10
85.233955383301
 20
93.857215881348
 30
0.0000000000000284
 40
42.0
 50
311.3643141506669
 51
128.635685849335
  0
ARC
  5
460
  8
0
 10
86.0
 20
94.5
 30
0.0000000000000284
 40
65.987803063838
 50
310.0
 51
130.0
  0
ARC
  5
461
  8
0
 10
107.356018066406
 20
69.962760925293
 30
0.0000000000000284
 40
33.468959316645
 50
272.375671888685
 51
308.9943236272379
  0
ARC
  5
462
  8
0
 10
272.579193115234
 20
39.515235900879
 30
0.0000000000000284
 40
22.210670681312
 50
134.5800014990459
 51
206.7375143976439
  0
ARC
  5
463
  8
0
 10
229.233947753906
 20
86.857215881348
 30
0.0000000000000284
 40
42.0
 50
311.364314150667
 51
128.635685849335
  0
ARC
  5
464
  8
0
 10
188.517440795898
 20
140.944030761719
 30
0.0000000000000284
 40
25.746052487135
 50
235.83533834071
 51
304.258435048096
  0
ARC
  5
465
  8
0
 10
219.257369995117
 20
100.606559753418
 30
0.0000000000000284
 40
49.042756085839
 50
130.228292298619
 51
157.162408473168
  0
ARC
  5
466
  8
0
 10
230.0
 20
87.5
 30
0.0000000000000284
 40
65.987803063838
 50
310.0
 51
130.0
  0
ARC
  5
467
  8
0
 10
251.356018066406
 20
62.962760925293
 30
0.0000000000000284
 40
33.468959316645
 50
272.375671888685
 51
308.9943236272379
  0
LINE
  5
468
  8
0
 10
182.5
 20
33.200000762939
 30
0.0000000000000284
 11
182.5
 21
25.80000077188
 31
0.0000000000000284
  0
LINE
  5
469
  8
0
 10
189.5
 20
33.200000762939
 30
0.0000000000000284
 11
182.5
 21
33.200000762939
 31
0.0000000000000284
  0
LINE
  5
46A
  8
0
 10
189.5
 20
25.799999237061
 30
0.0000000000000284
 11
189.5
 21
33.19999922812
 31
0.0000000000000284
  0
LINE
  5
46B
  8
0
 10
182.5
 20
25.799999237061
 30
0.0000000000000284
 11
189.5
 21
25.799999237061
 31
0.0000000000000284
  0
LINE
  5
46C
  8
0
 10
162.5
 20
33.200000762939
 30
0.0000000000000284
 11
162.5
 21
25.80000077188
 31
0.0000000000000284
  0
LINE
  5
46D
  8
0
 10
169.5
 20
33.200000762939
 30
0.0000000000000284
 11
162.5
 21
33.200000762939
 31
0.0000000000000284
  0
LINE
  5
46E
  8
0
 10
169.5
 20
25.799999237061
 30
0.0000000000000284
 11
169.5
 21
33.19999922812
 31
0.0000000000000284
  0
LINE
  5
46F
  8
0
 10
162.5
 20
25.799999237061
 30
0.0000000000000284
 11
169.5
 21
25.799999237061
 31
0.0000000000000284
  0
LINE
  5
470
  8
0
 10
38.5
 20
25.799999237061
 30
0.0000000000000284
 11
38.5
 21
33.19999922812
 31
0.0000000000000284
  0
LINE
  5
471
  8
0
 10
182.5
 20
12.018013000488
 30
0.0000000000000284
 11
182.5
 21
4.618013009428999
 31
0.0000000000000284
  0
LINE
  5
472
  8
0
 10
189.5
 20
12.018013000488
 30
0.0000000000000284
 11
182.5
 21
12.018013000488
 31
0.0000000000000284
  0
LINE
  5
473
  8
0
 10
189.5
 20
4.618013381958001
 30
0.0000000000000284
 11
189.5
 21
12.018013373017
 31
0.0000000000000284
  0
LINE
  5
474
  8
0
 10
182.5
 20
4.618013381958001
 30
0.0000000000000284
 11
189.5
 21
4.618013381958001
 31
0.0000000000000284
  0
LINE
  5
475
  8
0
 10
162.5
 20
12.018013000488
 30
0.0000000000000284
 11
162.5
 21
4.618013009428999
 31
0.0000000000000284
  0
LINE
  5
476
  8
0
 10
169.5
 20
12.018013000488
 30
0.0000000000000284
 11
162.5
 21
12.018013000488
 31
0.0000000000000284
  0
LINE
  5
477
  8
0
 10
169.5
 20
4.618013381958001
 30
0.0000000000000284
 11
169.5
 21
12.018013373017
 31
0.0000000000000284
  0
LINE
  5
478
  8
0
 10
162.5
 20
4.618013381958001
 30
0.0000000000000284
 11
169.5
 21
4.618013381958001
 31
0.0000000000000284
  0
LINE
  5
479
  8
0
 10
38.5
 20
4.618013381958001
 30
0.0000000000000284
 11
38.5
 21
12.018013373017
 31
0.0000000000000284
  0
LINE
  5
47A
  8
0
 10
151.0
 20
66.909194946289
 30
0.0000000000000284
 11
151.0
 21
-0.0000003311460013
 31
0.0000000000000284
  0
LINE
  5
47B
  8
0
 10
201.583862304688
 20
113.549591064453
 30
0.0000000000000284
 11
151.000004500594
 21
66.909196481628
 31
0.0000000000000284
  0
LINE
  5
47C
  8
0
 10
209.232711791992
 20
119.122406005859
 30
0.0000000000000284
 11
201.583852310029
 21
113.549597109028
 31
0.0000000000000284
  0
LINE
  5
47D
  8
0
 10
212.437133789062
 20
120.849761962891
 30
0.0000000000000284
 11
209.232720024963
 21
119.12239953643
 31
0.0000000000000284
  0
LINE
  5
47E
  8
0
 10
215.693954467773
 20
122.476150512695
 30
0.0000000000000284
 11
212.437133466519
 21
120.849754038989
 31
0.0000000000000284
  0
LINE
  5
47F
  8
0
 10
219.0
 20
124.0
 30
0.0000000000000284
 11
215.693952051411
 21
122.476157657259
 31
0.0000000000000284
  0
ARC
  5
480
  8
0
 10
186.163467407227
 20
102.533264160156
 30
0.0000000000000284
 40
39.23084115642
 50
26.16186243542199
 51
33.17446495461197
  0
ARC
  5
481
  8
0
 10
197.124542236328
 20
107.656021118164
 30
0.0000000000000284
 40
27.135046412065
 50
15.362823603803
 51
26.65785845308801
  0
ARC
  5
482
  8
0
 10
204.429824829102
 20
109.457427978516
 30
0.0000000000000284
 40
19.614561972336
 50
0.5662929955839785
 51
15.94224453715503
  0
ARC
  5
483
  8
0
 10
206.851440429688
 20
109.517028808594
 30
0.0000000000000284
 40
17.192505395705
 50
333.363031042115
 51
0.4474360970039862
  0
ARC
  5
484
  8
0
 10
202.672210693359
 20
111.87825012207
 30
0.0000000000000284
 40
21.988075703546
 50
318.878562745723
 51
332.7456612732749
  0
ARC
  5
485
  8
0
 10
197.898101806641
 20
116.130233764648
 30
0.0000000000000284
 40
28.380906131557
 50
312.335335998012
 51
318.750656959384
  0
ARC
  5
486
  8
0
 10
244.330902099609
 20
63.97093200683599
 30
0.0000000000000284
 40
41.786121348005
 50
165.385193123945
 51
194.666139249081
  0
ARC
  5
487
  8
0
 10
245.445495605469
 20
64.316131591797
 30
0.0000000000000284
 40
42.951829838649
 50
194.735175420935
 51
220.032631724584
  0
ARC
  5
488
  8
0
 10
245.1103515625
 20
63.835693359375
 30
0.0000000000000284
 40
42.386451371709
 50
219.826777587771
 51
255.450822476707
  0
ARC
  5
489
  8
0
 10
244.922180175781
 20
62.78347015380901
 30
0.0000000000000284
 40
41.320781652011
 50
255.336871882471
 51
283.430215243636
  0
ARC
  5
48A
  8
0
 10
245.156860351562
 20
61.97475433349599
 30
0.0000000000000284
 40
40.47968654
 50
283.372950270615
 51
309.711663376836
  0
ARC
  5
48B
  8
0
 10
284.066192626953
 20
14.572364807129
 30
0.0000000000000284
 40
20.848652313438
 50
115.4077365381329
 51
128.7365692513299
  0
ARC
  5
48C
  8
0
 10
282.035064697266
 20
19.191555023193
 30
0.0000000000000284
 40
15.805459926474
 50
96.81706793739902
 51
115.9414399544021
  0
ARC
  5
48D
  8
0
 10
281.924682617188
 20
18.969593048096
 30
0.0000000000000284
 40
16.013326176908
 50
76.13783128467503
 51
96.33061781233597
  0
ARC
  5
48E
  8
0
 10
280.474456787109
 20
13.999500274658
 30
0.0000000000000284
 40
21.187231034326
 50
62.757910273336
 51
75.5504357173999
  0
ARC
  5
48F
  8
0
 10
275.426086425781
 20
4.949317932128999
 30
0.0000000000000284
 40
31.546365066951
 50
51.35063917330707
 51
62.13005520571203
  0
ARC
  5
490
  8
0
 10
266.214996337891
 20
-6.408843994141
 30
0.0000000000000284
 40
46.169812372166
 50
45.10866217114796
 51
51.22662602286397
  0
ARC
  5
491
  8
0
 10
242.4471130371089
 20
64.227516174316
 30
0.0000000000000284
 40
67.927483744278
 50
310.3378544266969
 51
326.058028909083
  0
LINE
  5
492
  8
0
 10
271.578308105469
 20
0.0
 30
0.0000000000000284
 11
286.416129141604
 21
12.450410158896
 31
0.0000000000000284
  0
LINE
  5
493
  8
0
 10
151.0
 20
0.0
 30
0.0000000000000284
 11
271.578321167701
 21
0.0
 31
0.0000000000000284
  0
LINE
  5
494
  8
0
 10
58.232719421387
 20
119.122406005859
 30
0.0000000000000284
 11
50.58385993942299
 21
113.549597109028
 31
0.0000000000000284
  0
LINE
  5
495
  8
0
 10
61.437133789062
 20
120.849761962891
 30
0.0000000000000284
 11
58.232720024963
 21
119.12239953643
 31
0.0000000000000284
  0
LINE
  5
496
  8
0
 10
64.693954467773
 20
122.476150512695
 30
0.0000000000000284
 11
61.437133466519
 21
120.849754038989
 31
0.0000000000000284
  0
LINE
  5
497
  8
0
 10
68.0
 20
124.0
 30
0.0000000000000284
 11
64.693952051411
 21
122.476157657259
 31
0.0000000000000284
  0
ARC
  5
498
  8
0
 10
35.163459777832
 20
102.533264160156
 30
0.0000000000000284
 40
39.230841156402
 50
26.16186243542
 51
33.174464954613
  0
ARC
  5
499
  8
0
 10
46.124549865723
 20
107.656021118164
 30
0.0000000000000284
 40
27.135046412072
 50
15.36282360380498
 51
26.65785845308697
  0
ARC
  5
49A
  8
0
 10
53.429824829102
 20
109.457427978516
 30
0.0000000000000284
 40
19.614561972332
 50
0.5662929955820182
 51
15.94224453715599
  0
ARC
  5
49B
  8
0
 10
55.851448059082
 20
109.517028808594
 30
0.0000000000000284
 40
17.192505395693
 50
333.363031042106
 51
0.4474360970129647
  0
ARC
  5
49C
  8
0
 10
51.67221069335901
 20
111.87825012207
 30
0.0000000000000284
 40
21.988075703543
 50
318.8785627457219
 51
332.745661273276
  0
ARC
  5
49D
  8
0
 10
46.89810180664099
 20
116.130233764648
 30
0.0000000000000284
 40
28.380906131557
 50
312.335335998012
 51
318.750656959384
  0
ARC
  5
49E
  8
0
 10
91.883514404297
 20
64.222763061523
 30
0.0000000000000284
 40
40.322202843332
 50
129.91315666312
 51
165.212509738577
  0
ARC
  5
49F
  8
0
 10
93.330909729004
 20
63.97093200683599
 30
0.0000000000000284
 40
41.786121348008
 50
165.385193123945
 51
194.66613924908
  0
ARC
  5
4A0
  8
0
 10
94.445503234863
 20
64.316131591797
 30
0.0000000000000284
 40
42.951829838644
 50
194.735175420934
 51
220.0326317245859
  0
ARC
  5
4A1
  8
0
 10
94.1103515625
 20
63.835693359375
 30
0.0000000000000284
 40
42.386451371712
 50
219.826777587773
 51
255.450822476706
  0
ARC
  5
4A2
  8
0
 10
93.922164916992
 20
62.78347015380901
 30
0.0000000000000284
 40
41.32078165201
 50
255.3368718824709
 51
283.430215243636
  0
ARC
  5
4A3
  8
0
 10
94.156875610352
 20
61.97475433349599
 30
0.0000000000000284
 40
40.479686539998
 50
283.372950270615
 51
309.711663376837
  0
ARC
  5
4A4
  8
0
 10
133.066177368164
 20
14.572364807129
 30
0.0000000000000284
 40
20.848652313465
 50
115.407736538142
 51
128.736569251321
  0
ARC
  5
4A5
  8
0
 10
131.035064697266
 20
19.191555023193
 30
0.0000000000000284
 40
15.805459926474
 50
96.81706793739902
 51
115.9414399544021
  0
ARC
  5
4A6
  8
0
 10
130.924667358398
 20
18.969593048096
 30
0.0000000000000284
 40
16.01332617691
 50
76.13783128467503
 51
96.33061781233485
  0
ARC
  5
4A7
  8
0
 10
129.474456787109
 20
13.999500274658
 30
0.0000000000000284
 40
21.187231034326
 50
62.757910273336
 51
75.55043571739998
  0
ARC
  5
4A8
  8
0
 10
124.426071166992
 20
4.949317932128999
 30
0.0000000000000284
 40
31.546365066959
 50
51.35063917330798
 51
62.13005520571095
  0
ARC
  5
4A9
  8
0
 10
115.214981079102
 20
-6.408843994141
 30
0.0000000000000284
 40
46.169812372183
 50
45.10866217114902
 51
51.226626022863
  0
ARC
  5
4AA
  8
0
 10
91.44712066650403
 20
64.227516174316
 30
0.0000000000000284
 40
67.927483744253
 50
310.3378544266939
 51
326.058028909085
  0
LINE
  5
4AB
  8
0
 10
120.578323364258
 20
0.0
 30
0.0000000000000284
 11
135.416144400393
 21
12.450410158896
 31
0.0000000000000284
  0
CIRCLE
  5
4AC
  8
0
 10
166.000001204224
 20
21.99999864832
 30
0.0000000000000284
 40
2.499999956992
  0
CIRCLE
  5
4AD
  8
0
 10
209.618699206656
 20
103.974038061056
 30
0.0000000000000284
 40
1.999999991808
  0
CIRCLE
  5
4AE
  8
0
 10
186.000002957312
 20
21.99999864832
 30
0.0000000000000284
 40
2.499999956992
  0
CIRCLE
  5
4AF
  8
0
 10
186.000002957312
 20
37.068178374656
 30
0.0000000000000284
 40
2.499999956992
  0
CIRCLE
  5
4B0
  8
0
 10
278.38127661056
 20
22.025965584384
 30
0.0000000000000284
 40
1.999999991808
  0
CIRCLE
  5
4B1
  8
0
 10
166.000001204224
 20
37.068178374656
 30
0.0000000000000284
 40
2.499999956992
  0
CIRCLE
  5
4B2
  8
0
 10
58.61870526464
 20
103.974038061056
 30
0.0000000000000284
 40
1.999999991808
  0
CIRCLE
  5
4B3
  8
0
 10
35.00000062668802
 20
21.99999864832
 30
0.0000000000000284
 40
2.499999956992
  0
CIRCLE
  5
4B4
  8
0
 10
35.00000062668802
 20
37.068178374656
 30
0.0000000000000284
 40
2.499999956992
  0
CIRCLE
  5
4B5
  8
0
 10
127.38129944576
 20
22.025965584384
 30
0.0000000000000284
 40
1.999999991808
  0
ENDSEC
  0
EOF
