  0
SECTION
  2
HEADER
  9
$ACADVER
  1
AC1009
  9
$DWGCODEPAGE
  3
ansi_1252
  9
$INSBASE
 10
0.0
 20
0.0
 30
0.0
  9
$EXTMIN
 10
19.999996871199
 20
19.999999668854
 30
0.0
  9
$EXTMAX
 10
423.704071044922
 20
317.997100830078
 30
0.0000000000000018
  9
$LIMMIN
 10
0.0
 20
0.0
  9
$LIMMAX
 10
12.0
 20
9.0
  9
$ORTHOMODE
 70
     0
  9
$REGENMODE
 70
     1
  9
$FILLMODE
 70
     1
  9
$QTEXTMODE
 70
     0
  9
$MIRRTEXT
 70
     1
  9
$DRAGMODE
 70
     2
  9
$LTSCALE
 40
1.0
  9
$OSMODE
 70
    37
  9
$ATTMODE
 70
     1
  9
$TEXTSIZE
 40
0.2
  9
$TRACEWID
 40
0.05
  9
$TEXTSTYLE
  7
STANDARD
  9
$CLAYER
  8
DEFAULT
  9
$CELTYPE
  6
BYLAYER
  9
$CECOLOR
 62
   256
  9
$DIMSCALE
 40
1.0
  9
$DIMASZ
 40
0.18
  9
$DIMEXO
 40
0.0625
  9
$DIMDLI
 40
0.38
  9
$DIMRND
 40
0.0
  9
$DIMDLE
 40
0.0
  9
$DIMEXE
 40
0.18
  9
$DIMTP
 40
0.0
  9
$DIMTM
 40
0.0
  9
$DIMTXT
 40
0.18
  9
$DIMCEN
 40
0.09
  9
$DIMTSZ
 40
0.0
  9
$DIMTOL
 70
     0
  9
$DIMLIM
 70
     0
  9
$DIMTIH
 70
     1
  9
$DIMTOH
 70
     1
  9
$DIMSE1
 70
     0
  9
$DIMSE2
 70
     0
  9
$DIMTAD
 70
     0
  9
$DIMZIN
 70
     0
  9
$DIMBLK
  1

  9
$DIMASO
 70
     1
  9
$DIMSHO
 70
     1
  9
$DIMPOST
  1

  9
$DIMAPOST
  1

  9
$DIMALT
 70
     0
  9
$DIMALTD
 70
     2
  9
$DIMALTF
 40
25.4
  9
$DIMLFAC
 40
1.0
  9
$DIMTOFL
 70
     0
  9
$DIMTVP
 40
0.0
  9
$DIMTIX
 70
     0
  9
$DIMSOXD
 70
     0
  9
$DIMSAH
 70
     0
  9
$DIMBLK1
  1

  9
$DIMBLK2
  1

  9
$DIMSTYLE
  2
STANDARD
  9
$DIMCLRD
 70
     0
  9
$DIMCLRE
 70
     0
  9
$DIMCLRT
 70
     0
  9
$DIMTFAC
 40
1.0
  9
$DIMGAP
 40
0.09
  9
$LUNITS
 70
     2
  9
$LUPREC
 70
     3
  9
$SKETCHINC
 40
0.1
  9
$FILLETRAD
 40
0.5
  9
$AUNITS
 70
     0
  9
$AUPREC
 70
     0
  9
$MENU
  1
.
  9
$ELEVATION
 40
0.0
  9
$PELEVATION
 40
0.0
  9
$THICKNESS
 40
0.0
  9
$LIMCHECK
 70
     0
  9
$CHAMFERA
 40
0.5
  9
$CHAMFERB
 40
0.5
  9
$SKPOLY
 70
     0
  9
$TDCREATE
 40
2456624.04295794
  9
$TDUPDATE
 40
2456624.042976921
  9
$TDINDWG
 40
0.0000000116
  9
$TDUSRTIMER
 40
0.0000000116
  9
$USRTIMER
 70
     1
  9
$ANGBASE
 50
0.0
  9
$ANGDIR
 70
     0
  9
$PDMODE
 70
     0
  9
$PDSIZE
 40
0.0
  9
$PLINEWID
 40
0.0
  9
$COORDS
 70
     1
  9
$SPLFRAME
 70
     0
  9
$SPLINETYPE
 70
     6
  9
$SPLINESEGS
 70
     8
  9
$ATTDIA
 70
     0
  9
$ATTREQ
 70
     1
  9
$HANDLING
 70
     1
  9
$HANDSEED
  5
497
  9
$SURFTAB1
 70
     6
  9
$SURFTAB2
 70
     6
  9
$SURFTYPE
 70
     6
  9
$SURFU
 70
     6
  9
$SURFV
 70
     6
  9
$UCSNAME
  2

  9
$UCSORG
 10
0.0
 20
0.0
 30
0.0
  9
$UCSXDIR
 10
1.0
 20
0.0
 30
0.0
  9
$UCSYDIR
 10
0.0
 20
1.0
 30
0.0
  9
$PUCSNAME
  2

  9
$PUCSORG
 10
0.0
 20
0.0
 30
0.0
  9
$PUCSXDIR
 10
1.0
 20
0.0
 30
0.0
  9
$PUCSYDIR
 10
0.0
 20
1.0
 30
0.0
  9
$USERI1
 70
     0
  9
$USERI2
 70
     0
  9
$USERI3
 70
     0
  9
$USERI4
 70
     0
  9
$USERI5
 70
     0
  9
$USERR1
 40
0.0
  9
$USERR2
 40
0.0
  9
$USERR3
 40
0.0
  9
$USERR4
 40
0.0
  9
$USERR5
 40
0.0
  9
$WORLDVIEW
 70
     1
  9
$SHADEDGE
 70
     3
  9
$SHADEDIF
 70
    70
  9
$TILEMODE
 70
     1
  9
$MAXACTVP
 70
    64
  9
$PLIMCHECK
 70
     0
  9
$PEXTMIN
 10
1.000000000000000E+20
 20
1.000000000000000E+20
 30
1.000000000000000E+20
  9
$PEXTMAX
 10
-1.000000000000000E+20
 20
-1.000000000000000E+20
 30
-1.000000000000000E+20
  9
$PLIMMIN
 10
0.0
 20
0.0
  9
$PLIMMAX
 10
12.0
 20
9.0
  9
$UNITMODE
 70
     0
  9
$VISRETAIN
 70
     1
  9
$PLINEGEN
 70
     0
  9
$PSLTSCALE
 70
     1
  0
ENDSEC
  0
SECTION
  2
TABLES
  0
TABLE
  2
VPORT
 70
     1
  0
VPORT
  2
*ACTIVE
 70
     0
 10
0.0
 20
0.0
 11
1.0
 21
1.0
 12
221.8520339580605
 22
168.998550249466
 13
0.0
 23
0.0
 14
0.5
 24
0.5
 15
0.5
 25
0.5
 16
0.0
 26
0.0
 36
1.0
 17
0.0
 27
0.0
 37
0.0
 40
303.9570431844485
 41
1.35472483658594
 42
50.0
 43
0.0
 44
0.0
 50
0.0
 51
0.0
 71
     0
 72
   100
 73
     1
 74
     3
 75
     0
 76
     0
 77
     0
 78
     0
  0
ENDTAB
  0
TABLE
  2
LTYPE
 70
     1
  0
LTYPE
  2
CONTINUOUS
 70
     0
  3
Solid line
 72
    65
 73
     0
 40
0.0
  0
ENDTAB
  0
TABLE
  2
LAYER
 70
     2
  0
LAYER
  2
0
 70
     0
 62
     7
  6
CONTINUOUS
  0
LAYER
  2
DEFAULT
 70
     0
 62
     7
  6
CONTINUOUS
  0
ENDTAB
  0
TABLE
  2
STYLE
 70
     1
  0
STYLE
  2
STANDARD
 70
     0
 40
0.0
 41
1.0
 50
0.0
 71
     0
 42
0.2
  3
txt
  4

  0
ENDTAB
  0
TABLE
  2
VIEW
 70
     0
  0
ENDTAB
  0
TABLE
  2
UCS
 70
     0
  0
ENDTAB
  0
TABLE
  2
APPID
 70
     1
  0
APPID
  2
ACAD
 70
     0
  0
ENDTAB
  0
TABLE
  2
DIMSTYLE
 70
     1
  0
DIMSTYLE
  2
STANDARD
 70
     0
  3

  4

  5

  6

  7

 40
1.0
 41
0.18
 42
0.0625
 43
0.38
 44
0.18
 45
0.0
 46
0.0
 47
0.0
 48
0.0
140
0.18
141
0.09
142
0.0
143
25.4
144
1.0
145
0.0
146
1.0
147
0.09
 71
     0
 72
     0
 73
     1
 74
     1
 75
     0
 76
     0
 77
     0
 78
     0
170
     0
171
     2
172
     0
173
     0
174
     0
175
     0
176
     0
177
     0
178
     0
  0
ENDTAB
  0
ENDSEC
  0
SECTION
  2
BLOCKS
  0
BLOCK
  8
0
  2
$MODEL_SPACE
 70
     0
 10
0.0
 20
0.0
 30
0.0
  3
$MODEL_SPACE
  1

  0
ENDBLK
  5
21
  8
0
  0
BLOCK
 67
     1
  8
0
  2
$PAPER_SPACE
 70
     0
 10
0.0
 20
0.0
 30
0.0
  3
$PAPER_SPACE
  1

  0
ENDBLK
  5
1D
 67
     1
  8
0
  0
ENDSEC
  0
SECTION
  2
ENTITIES
  0
CIRCLE
  5
41
  8
DEFAULT
 10
113.74444937216
 20
93.755554136064
 30
0.0
 40
1.5
  0
CIRCLE
  5
42
  8
DEFAULT
 10
113.74444937216
 20
107.755553685504
 30
0.0
 40
1.5
  0
CIRCLE
  5
43
  8
DEFAULT
 10
261.74445060096
 20
88.755557892096
 30
0.0
 40
1.5
  0
CIRCLE
  5
44
  8
DEFAULT
 10
261.74445060096
 20
102.755557441536
 30
0.0
 40
1.5
  0
CIRCLE
  5
45
  8
DEFAULT
 10
356.936676025391
 20
135.689636230469
 30
0.0
 40
1.5
  0
CIRCLE
  5
46
  8
DEFAULT
 10
333.936676025391
 20
135.689636230469
 30
0.0
 40
1.5
  0
CIRCLE
  5
47
  8
DEFAULT
 10
274.74444419072
 20
306.855549075456
 30
0.0
 40
1.5
  0
CIRCLE
  5
48
  8
DEFAULT
 10
274.74444419072
 20
292.855566303232
 30
0.0
 40
1.5
  0
CIRCLE
  5
49
  8
DEFAULT
 10
282.744441536512
 20
256.655551889408
 30
0.0
 40
1.5
  0
CIRCLE
  5
4A
  8
DEFAULT
 10
282.744445800781
 20
270.655548095703
 30
0.0
 40
1.5
  0
CIRCLE
  5
4B
  8
DEFAULT
 10
90.744446517248
 20
213.500005711872
 30
0.0
 40
1.5
  0
CIRCLE
  5
4C
  8
DEFAULT
 10
90.744446517248
 20
227.500005261312
 30
0.0
 40
1.5
  0
CIRCLE
  5
4D
  8
DEFAULT
 10
115.988891601562
 20
302.5
 30
0.0
 40
1.5
  0
CIRCLE
  5
4E
  8
DEFAULT
 10
101.988891601562
 20
302.5
 30
0.0
 40
1.5
  0
CIRCLE
  5
4F
  8
DEFAULT
 10
82.488890679296
 20
258.500005462016
 30
0.0
 40
1.5
  0
CIRCLE
  5
50
  8
DEFAULT
 10
68.488890679296
 20
258.500005462016
 30
0.0
 40
1.5
  0
CIRCLE
  5
51
  8
0
 10
39.744440369152
 20
209.499998650368
 30
0.0
 40
2.499999956992
  0
CIRCLE
  5
52
  8
0
 10
39.744440369152
 20
229.500000403456
 30
0.0
 40
2.499999956992
  0
CIRCLE
  5
53
  8
0
 10
86.488888901632
 20
301.4999932928
 30
0.0
 40
2.499999956992
  0
CIRCLE
  5
54
  8
0
 10
66.488891342848
 20
301.4999932928
 30
0.0
 40
2.499999956992
  0
CIRCLE
  5
55
  8
0
 10
46.48888958976
 20
286.49998778368
 30
0.0
 40
9.499999993856
  0
CIRCLE
  5
56
  8
0
 10
46.48888958976
 20
273.49999419392
 30
0.0
 40
1.999999991808
  0
CIRCLE
  5
57
  8
0
 10
46.48888958976
 20
299.500014927872
 30
0.0
 40
1.999999991808
  0
CIRCLE
  5
58
  8
0
 10
311.759361540096
 20
220.51117072384
 30
0.0
 40
2.499999956992
  0
CIRCLE
  5
59
  8
0
 10
241.759498010624
 20
220.641663909888
 30
0.0
 40
2.499999956992
  0
CIRCLE
  5
5A
  8
0
 10
310.723032907776
 20
201.013076164608
 30
0.0
 40
1.999999991808
  0
CIRCLE
  5
5B
  8
0
 10
229.723154153472
 20
201.164071108608
 30
0.0
 40
1.999999991808
  0
CIRCLE
  5
5C
  8
0
 10
312.744452554752
 20
273.755544748032
 30
0.0
 40
2.499999956992
  0
CIRCLE
  5
5D
  8
0
 10
312.744452554752
 20
253.75555977216
 30
0.0
 40
2.499999956992
  0
CIRCLE
  5
5E
  8
0
 10
244.744449949696
 20
309.75555796992
 30
0.0
 40
2.499999956992
  0
CIRCLE
  5
5F
  8
0
 10
244.744449949696
 20
289.755539439616
 30
0.0
 40
2.499999956992
  0
CIRCLE
  5
60
  8
0
 10
96.744448720896
 20
105.755550154752
 30
0.0
 40
2.499999956992
  0
CIRCLE
  5
61
  8
0
 10
96.744448720896
 20
84.755550830592
 30
0.0
 40
2.499999956992
  0
CIRCLE
  5
62
  8
0
 10
113.74444937216
 20
93.755554136064
 30
0.0
 40
1.249499938816
  0
CIRCLE
  5
63
  8
0
 10
113.74444937216
 20
107.755553685504
 30
0.0
 40
1.249499938816
  0
CIRCLE
  5
64
  8
0
 10
244.744449949696
 20
100.755553910784
 30
0.0
 40
2.499999956992
  0
CIRCLE
  5
65
  8
0
 10
244.744449949696
 20
79.755554586624
 30
0.0
 40
2.499999956992
  0
CIRCLE
  5
66
  8
0
 10
261.74445060096
 20
88.755557892096
 30
0.0
 40
1.249499938816
  0
CIRCLE
  5
67
  8
0
 10
261.74445060096
 20
102.755557441536
 30
0.0
 40
1.249499938816
  0
CIRCLE
  5
68
  8
0
 10
34.9999988736
 20
57.068178374656
 30
0.0
 40
2.499999956992
  0
CIRCLE
  5
69
  8
0
 10
147.38129944576
 20
42.025965584384
 30
0.0
 40
1.999999991808
  0
CIRCLE
  5
6A
  8
0
 10
55.00000062668801
 20
57.068178374656
 30
0.0
 40
2.499999956992
  0
CIRCLE
  5
6B
  8
0
 10
55.00000062668801
 20
41.99999864832
 30
0.0
 40
2.499999956992
  0
CIRCLE
  5
6C
  8
0
 10
78.61870526464
 20
123.974038061056
 30
0.0
 40
1.999999991808
  0
CIRCLE
  5
6D
  8
0
 10
34.9999988736
 20
41.99999864832
 30
0.0
 40
2.499999956992
  0
CIRCLE
  5
6E
  8
0
 10
186.000001204224
 20
57.068178374656
 30
0.0
 40
2.499999956992
  0
CIRCLE
  5
6F
  8
0
 10
298.38127661056
 20
42.025965584384
 30
0.0
 40
1.999999991808
  0
CIRCLE
  5
70
  8
0
 10
206.000002957312
 20
57.068178374656
 30
0.0
 40
2.499999956992
  0
CIRCLE
  5
71
  8
0
 10
206.000002957312
 20
41.99999864832
 30
0.0
 40
2.499999956992
  0
CIRCLE
  5
72
  8
0
 10
229.618699206656
 20
123.974038061056
 30
0.0
 40
1.999999991808
  0
CIRCLE
  5
73
  8
0
 10
186.000001204224
 20
41.99999864832
 30
0.0
 40
2.499999956992
  0
CIRCLE
  5
74
  8
0
 10
130.244447043584
 20
220.499997097984
 30
0.0
 40
2.499999956992
  0
CIRCLE
  5
75
  8
0
 10
200.244444790784
 20
220.499997097984
 30
0.0
 40
2.499999956992
  0
CIRCLE
  5
76
  8
0
 10
118.244442636288
 20
229.000005812224
 30
0.0
 40
1.999999991808
  0
CIRCLE
  5
77
  8
0
 10
212.24444919808
 20
229.000005812224
 30
0.0
 40
1.999999991808
  0
LINE
  5
78
  8
0
 10
20.0
 20
20.0
 30
0.0
 11
140.5783211677
 21
20.0
 31
0.0
  0
LINE
  5
79
  8
0
 10
140.578323364258
 20
20.0
 30
0.0
 11
155.416144400393
 21
32.450410158896
 31
0.0
  0
ARC
  5
7A
  8
0
 10
111.447120666504
 20
84.227516174316
 30
0.0
 40
67.927483744253
 50
310.3378544266939
 51
326.058028909085
  0
ARC
  5
7B
  8
0
 10
135.214981079102
 20
13.591156005859
 30
0.0
 40
46.169812372183
 50
45.10866217114902
 51
51.226626022863
  0
ARC
  5
7C
  8
0
 10
144.426071166992
 20
24.949317932129
 30
0.0
 40
31.546365066959
 50
51.35063917330798
 51
62.13005520571097
  0
ARC
  5
7D
  8
0
 10
149.474456787109
 20
33.999500274658
 30
0.0
 40
21.187231034326
 50
62.757910273336
 51
75.55043571739998
  0
ARC
  5
7E
  8
0
 10
150.924667358398
 20
38.969593048096
 30
0.0000000000000009
 40
16.01332617691
 50
76.13783128467503
 51
96.33061781233495
  0
ARC
  5
7F
  8
0
 10
151.035064697266
 20
39.191555023193
 30
0.0
 40
15.805459926474
 50
96.81706793739902
 51
115.9414399544021
  0
ARC
  5
80
  8
0
 10
153.066177368164
 20
34.572364807129
 30
0.0
 40
20.848652313465
 50
115.407736538142
 51
128.736569251321
  0
ARC
  5
81
  8
0
 10
114.156875610352
 20
81.974754333496
 30
0.0
 40
40.479686539998
 50
283.372950270615
 51
309.711663376837
  0
ARC
  5
82
  8
0
 10
113.922164916992
 20
82.783470153809
 30
0.0
 40
41.32078165201
 50
255.3368718824709
 51
283.430215243636
  0
ARC
  5
83
  8
0
 10
114.1103515625
 20
83.835693359375
 30
0.0000000000000009
 40
42.386451371712
 50
219.826777587773
 51
255.450822476706
  0
ARC
  5
84
  8
0
 10
114.445503234863
 20
84.316131591797
 30
0.0000000000000009
 40
42.951829838644
 50
194.735175420934
 51
220.0326317245859
  0
ARC
  5
85
  8
0
 10
113.330909729004
 20
83.970932006836
 30
0.0000000000000009
 40
41.786121348008
 50
165.385193123945
 51
194.66613924908
  0
ARC
  5
86
  8
0
 10
111.883514404297
 20
84.222763061523
 30
0.0
 40
40.322202843332
 50
129.91315666312
 51
165.212509738577
  0
ARC
  5
87
  8
0
 10
66.898101806641
 20
136.130233764648
 30
0.0000000000000018
 40
28.380906131557
 50
312.335335998012
 51
318.750656959384
  0
ARC
  5
88
  8
0
 10
71.672210693359
 20
131.87825012207
 30
0.0
 40
21.988075703543
 50
318.8785627457219
 51
332.745661273276
  0
ARC
  5
89
  8
0
 10
75.851448059082
 20
129.517028808594
 30
0.0000000000000009
 40
17.192505395693
 50
333.363031042106
 51
0.4474360970130121
  0
ARC
  5
8A
  8
0
 10
73.429824829102
 20
129.457427978516
 30
0.0
 40
19.614561972332
 50
0.5662929955820182
 51
15.94224453715599
  0
ARC
  5
8B
  8
0
 10
66.124549865723
 20
127.656021118164
 30
0.0
 40
27.135046412072
 50
15.36282360380498
 51
26.65785845308697
  0
ARC
  5
8C
  8
0
 10
55.163459777832
 20
122.533264160156
 30
0.0
 40
39.230841156402
 50
26.16186243542
 51
33.174464954613
  0
LINE
  5
8D
  8
0
 10
88.0
 20
144.0
 30
0.0
 11
84.693952051411
 21
142.476157657259
 31
0.0
  0
LINE
  5
8E
  8
0
 10
84.693954467773
 20
142.476150512695
 30
0.0
 11
81.437133466519
 21
140.849754038989
 31
0.0
  0
LINE
  5
8F
  8
0
 10
81.437133789062
 20
140.849761962891
 30
0.0
 11
78.232720024963
 21
139.12239953643
 31
0.0
  0
LINE
  5
90
  8
0
 10
78.232719421387
 20
139.122406005859
 30
0.0
 11
70.583859939423
 21
133.549597109028
 31
0.0
  0
LINE
  5
91
  8
0
 10
70.583854675293
 20
133.549591064453
 30
0.0
 11
19.999996871199
 21
86.909196481628
 31
0.0
  0
LINE
  5
92
  8
0
 10
20.0
 20
86.909194946289
 30
0.0
 11
20.0
 21
19.999999668854
 31
0.0
  0
LINE
  5
93
  8
0
 10
171.0
 20
20.0
 30
0.0
 11
291.578321167701
 21
20.0
 31
0.0
  0
LINE
  5
94
  8
0
 10
291.578308105469
 20
20.0
 30
0.0
 11
306.416129141604
 21
32.450410158896
 31
0.0
  0
ARC
  5
95
  8
0
 10
262.447113037109
 20
84.227516174316
 30
0.0
 40
67.927483744278
 50
310.3378544266969
 51
326.058028909083
  0
ARC
  5
96
  8
0
 10
286.214996337891
 20
13.591156005859
 30
0.0000000000000009
 40
46.169812372166
 50
45.10866217114796
 51
51.22662602286397
  0
ARC
  5
97
  8
0
 10
295.426086425781
 20
24.949317932129
 30
0.0
 40
31.546365066951
 50
51.35063917330706
 51
62.13005520571203
  0
ARC
  5
98
  8
0
 10
300.474456787109
 20
33.999500274658
 30
0.0
 40
21.187231034326
 50
62.757910273336
 51
75.5504357173999
  0
ARC
  5
99
  8
0
 10
301.924682617188
 20
38.969593048096
 30
0.0
 40
16.013326176908
 50
76.13783128467503
 51
96.33061781233597
  0
ARC
  5
9A
  8
0
 10
302.035064697266
 20
39.191555023193
 30
0.0
 40
15.805459926474
 50
96.81706793739902
 51
115.9414399544021
  0
ARC
  5
9B
  8
0
 10
304.066192626953
 20
34.572364807129
 30
0.0
 40
20.848652313438
 50
115.4077365381329
 51
128.7365692513299
  0
ARC
  5
9C
  8
0
 10
265.156860351562
 20
81.974754333496
 30
0.0
 40
40.47968654
 50
283.372950270615
 51
309.711663376836
  0
ARC
  5
9D
  8
0
 10
264.922180175781
 20
82.783470153809
 30
0.0
 40
41.320781652011
 50
255.336871882471
 51
283.430215243636
  0
ARC
  5
9E
  8
0
 10
265.1103515625
 20
83.835693359375
 30
0.0
 40
42.386451371709
 50
219.826777587771
 51
255.450822476707
  0
ARC
  5
9F
  8
0
 10
265.445495605469
 20
84.316131591797
 30
0.0
 40
42.951829838649
 50
194.735175420935
 51
220.032631724584
  0
ARC
  5
A0
  8
0
 10
264.330902099609
 20
83.970932006836
 30
0.0000000000000018
 40
41.786121348005
 50
165.385193123945
 51
194.666139249081
  0
ARC
  5
A1
  8
0
 10
262.883514404297
 20
84.222763061523
 30
0.0
 40
40.322202843333
 50
129.913156663121
 51
165.212509738577
  0
ARC
  5
A2
  8
0
 10
217.898101806641
 20
136.130233764648
 30
0.0000000000000018
 40
28.380906131557
 50
312.335335998012
 51
318.750656959384
  0
ARC
  5
A3
  8
0
 10
222.672210693359
 20
131.87825012207
 30
0.0
 40
21.988075703546
 50
318.878562745723
 51
332.7456612732749
  0
ARC
  5
A4
  8
0
 10
226.851440429688
 20
129.517028808594
 30
0.0000000000000009
 40
17.192505395705
 50
333.363031042115
 51
0.4474360970039854
  0
ARC
  5
A5
  8
0
 10
224.429824829102
 20
129.457427978516
 30
0.0000000000000018
 40
19.614561972336
 50
0.5662929955839785
 51
15.94224453715499
  0
ARC
  5
A6
  8
0
 10
217.124542236328
 20
127.656021118164
 30
0.0000000000000018
 40
27.135046412065
 50
15.362823603803
 51
26.65785845308801
  0
ARC
  5
A7
  8
0
 10
206.163467407227
 20
122.533264160156
 30
0.0
 40
39.23084115642
 50
26.16186243542199
 51
33.17446495461198
  0
LINE
  5
A8
  8
0
 10
239.0
 20
144.0
 30
0.0
 11
235.693952051411
 21
142.476157657259
 31
0.0
  0
LINE
  5
A9
  8
0
 10
235.693954467773
 20
142.476150512695
 30
0.0
 11
232.437133466519
 21
140.849754038989
 31
0.0
  0
LINE
  5
AA
  8
0
 10
232.437133789062
 20
140.849761962891
 30
0.0
 11
229.232720024963
 21
139.12239953643
 31
0.0
  0
LINE
  5
AB
  8
0
 10
229.232711791992
 20
139.122406005859
 30
0.0
 11
221.583852310029
 21
133.549597109028
 31
0.0
  0
LINE
  5
AC
  8
0
 10
221.583862304688
 20
133.549591064453
 30
0.0
 11
171.000004500594
 21
86.909196481628
 31
0.0
  0
LINE
  5
AD
  8
0
 10
171.0
 20
86.909194946289
 30
0.0
 11
171.0
 21
19.999999668854
 31
0.0
  0
LINE
  5
AE
  8
0
 10
31.5
 20
24.618013381958
 30
0.0
 11
38.5
 21
24.618013381958
 31
0.0
  0
LINE
  5
AF
  8
0
 10
38.5
 20
24.618013381958
 30
0.0
 11
38.5
 21
32.018013373017
 31
0.0
  0
LINE
  5
B0
  8
0
 10
38.5
 20
32.018013000488
 30
0.0
 11
31.5
 21
32.018013000488
 31
0.0
  0
LINE
  5
B1
  8
0
 10
31.5
 20
32.018013000488
 30
0.0
 11
31.5
 21
24.618013009429
 31
0.0
  0
LINE
  5
B2
  8
0
 10
51.5
 20
24.618013381958
 30
0.0
 11
58.5
 21
24.618013381958
 31
0.0
  0
LINE
  5
B3
  8
0
 10
58.5
 20
24.618013381958
 30
0.0
 11
58.5
 21
32.018013373017
 31
0.0
  0
LINE
  5
B4
  8
0
 10
58.5
 20
32.018013000488
 30
0.0
 11
51.5
 21
32.018013000488
 31
0.0
  0
LINE
  5
B5
  8
0
 10
51.5
 20
32.018013000488
 30
0.0
 11
51.5
 21
24.618013009429
 31
0.0
  0
LINE
  5
B6
  8
0
 10
182.5
 20
24.618013381958
 30
0.0
 11
189.5
 21
24.618013381958
 31
0.0
  0
LINE
  5
B7
  8
0
 10
189.5
 20
24.618013381958
 30
0.0
 11
189.5
 21
32.018013373017
 31
0.0
  0
LINE
  5
B8
  8
0
 10
189.5
 20
32.018013000488
 30
0.0
 11
182.5
 21
32.018013000488
 31
0.0
  0
LINE
  5
B9
  8
0
 10
182.5
 20
32.018013000488
 30
0.0
 11
182.5
 21
24.618013009429
 31
0.0
  0
LINE
  5
BA
  8
0
 10
202.5
 20
24.618013381958
 30
0.0
 11
209.5
 21
24.618013381958
 31
0.0
  0
LINE
  5
BB
  8
0
 10
209.5
 20
24.618013381958
 30
0.0
 11
209.5
 21
32.018013373017
 31
0.0
  0
LINE
  5
BC
  8
0
 10
209.5
 20
32.018013000488
 30
0.0
 11
202.5
 21
32.018013000488
 31
0.0
  0
LINE
  5
BD
  8
0
 10
202.5
 20
32.018013000488
 30
0.0
 11
202.5
 21
24.618013009429
 31
0.0
  0
LINE
  5
BE
  8
0
 10
31.5
 20
45.799999237061
 30
0.0
 11
38.5
 21
45.799999237061
 31
0.0
  0
LINE
  5
BF
  8
0
 10
38.5
 20
45.799999237061
 30
0.0
 11
38.5
 21
53.19999922812
 31
0.0
  0
LINE
  5
C0
  8
0
 10
38.5
 20
53.200000762939
 30
0.0
 11
31.5
 21
53.200000762939
 31
0.0
  0
LINE
  5
C1
  8
0
 10
31.5
 20
53.200000762939
 30
0.0
 11
31.5
 21
45.80000077188
 31
0.0
  0
LINE
  5
C2
  8
0
 10
51.5
 20
45.799999237061
 30
0.0
 11
58.5
 21
45.799999237061
 31
0.0
  0
LINE
  5
C3
  8
0
 10
58.5
 20
45.799999237061
 30
0.0
 11
58.5
 21
53.19999922812
 31
0.0
  0
LINE
  5
C4
  8
0
 10
58.5
 20
53.200000762939
 30
0.0
 11
51.5
 21
53.200000762939
 31
0.0
  0
LINE
  5
C5
  8
0
 10
51.5
 20
53.200000762939
 30
0.0
 11
51.5
 21
45.80000077188
 31
0.0
  0
LINE
  5
C6
  8
0
 10
182.5
 20
45.799999237061
 30
0.0
 11
189.5
 21
45.799999237061
 31
0.0
  0
LINE
  5
C7
  8
0
 10
189.5
 20
45.799999237061
 30
0.0
 11
189.5
 21
53.19999922812
 31
0.0
  0
LINE
  5
C8
  8
0
 10
189.5
 20
53.200000762939
 30
0.0
 11
182.5
 21
53.200000762939
 31
0.0
  0
LINE
  5
C9
  8
0
 10
182.5
 20
53.200000762939
 30
0.0
 11
182.5
 21
45.80000077188
 31
0.0
  0
LINE
  5
CA
  8
0
 10
202.5
 20
45.799999237061
 30
0.0
 11
209.5
 21
45.799999237061
 31
0.0
  0
LINE
  5
CB
  8
0
 10
209.5
 20
45.799999237061
 30
0.0
 11
209.5
 21
53.19999922812
 31
0.0
  0
LINE
  5
CC
  8
0
 10
209.5
 20
53.200000762939
 30
0.0
 11
202.5
 21
53.200000762939
 31
0.0
  0
LINE
  5
CD
  8
0
 10
202.5
 20
53.200000762939
 30
0.0
 11
202.5
 21
45.80000077188
 31
0.0
  0
ARC
  5
CE
  8
0
 10
271.356018066406
 20
82.962760925293
 30
0.0000000000000018
 40
33.468959316645
 50
272.375671888685
 51
308.9943236272379
  0
ARC
  5
CF
  8
0
 10
250.0
 20
107.5
 30
0.0
 40
65.987803063838
 50
310.0
 51
130.0
  0
ARC
  5
D0
  8
0
 10
239.257369995117
 20
120.606559753418
 30
0.0
 40
49.042756085839
 50
130.228292298619
 51
157.162408473168
  0
ARC
  5
D1
  8
0
 10
208.517440795898
 20
160.944030761719
 30
0.0
 40
25.746052487135
 50
235.83533834071
 51
304.258435048096
  0
ARC
  5
D2
  8
0
 10
249.233947753906
 20
106.857215881348
 30
0.0
 40
42.0
 50
311.364314150667
 51
128.635685849335
  0
ARC
  5
D3
  8
0
 10
292.579193115234
 20
59.515235900879
 30
0.0
 40
22.210670681312
 50
134.5800014990459
 51
206.7375143976439
  0
ARC
  5
D4
  8
0
 10
127.356018066406
 20
89.962760925293
 30
0.0000000000000018
 40
33.468959316645
 50
272.375671888685
 51
308.994323627238
  0
ARC
  5
D5
  8
0
 10
106.0
 20
114.5
 30
0.0
 40
65.987803063838
 50
310.0
 51
130.0
  0
ARC
  5
D6
  8
0
 10
95.257377624512
 20
127.606559753418
 30
0.0
 40
49.042756085839
 50
130.228292298619
 51
157.162408473168
  0
ARC
  5
D7
  8
0
 10
64.517433166504
 20
167.944030761719
 30
0.0
 40
25.746052487135
 50
235.83533834071
 51
304.258435048096
  0
ARC
  5
D8
  8
0
 10
105.233955383301
 20
113.857215881348
 30
0.0
 40
42.0
 50
311.3643141506669
 51
128.635685849335
  0
ARC
  5
D9
  8
0
 10
148.579193115234
 20
66.515235900879
 30
0.0
 40
22.210670681312
 50
134.580001499046
 51
206.737514397644
  0
LINE
  5
DA
  8
0
 10
282.864562988281
 20
63.240447998047
 30
0.0
 11
282.933584092231
 21
63.242169276917
 31
0.0
  0
LINE
  5
DB
  8
0
 10
282.933563232422
 20
63.242172241211
 30
0.0
 11
283.002483797594
 21
63.246274836457
 31
0.0
  0
LINE
  5
DC
  8
0
 10
283.002502441406
 20
63.246273040771
 30
0.0
 11
283.071240333861
 21
63.252752063253
 31
0.0
  0
LINE
  5
DD
  8
0
 10
283.071228027344
 20
63.252750396729
 30
0.0
 11
283.139701330835
 21
63.261598125271
 31
0.0
  0
LINE
  5
DE
  8
0
 10
283.139709472656
 20
63.261600494385
 30
0.0
 11
283.207836586255
 21
63.272806384984
 31
0.0
  0
LINE
  5
DF
  8
0
 10
283.207824707031
 20
63.272804260254
 30
0.0
 11
283.275524442369
 21
63.286354958638
 31
0.0
  0
LINE
  5
E0
  8
0
 10
283.275543212891
 20
63.286357879639
 30
0.0
 11
283.342734890912
 21
63.302237237184
 31
0.0
  0
LINE
  5
E1
  8
0
 10
283.342712402344
 20
63.302234649658
 30
0.0
 11
283.409315949458
 21
63.320423742635
 31
0.0
  0
LINE
  5
E2
  8
0
 10
283.409332275391
 20
63.320423126221
 30
0.0
 11
283.475268318891
 21
63.340900278342
 31
0.0
  0
LINE
  5
E3
  8
0
 10
283.475250244141
 20
63.340900421143
 30
0.0
 11
283.540440206798
 21
63.3636412294
 31
0.0
  0
LINE
  5
E4
  8
0
 10
283.540466308594
 20
63.36364364624
 30
0.0
 11
283.604832502297
 21
63.388621009983
 31
0.0
  0
LINE
  5
E5
  8
0
 10
283.604827880859
 20
63.388618469238
 30
0.0
 11
283.6682935992
 21
63.41580262247
 31
0.0
  0
LINE
  5
E6
  8
0
 10
283.668273925781
 20
63.41580581665
 30
0.0
 11
283.730763535464
 21
63.445164363501
 31
0.0
  0
LINE
  5
E7
  8
0
 10
283.730773925781
 20
63.445163726807
 30
0.0
 11
283.792212956756
 21
63.476661680142
 31
0.0
  0
LINE
  5
E8
  8
0
 10
283.792205810547
 20
63.476661682129
 30
0.0
 11
283.85252104476
 21
63.510261505242
 31
0.0
  0
LINE
  5
E9
  8
0
 10
283.8525390625
 20
63.510261535645
 30
0.0
 11
283.911658621147
 21
63.545923186992
 31
0.0
  0
LINE
  5
EA
  8
0
 10
283.911651611328
 20
63.545921325684
 30
0.0
 11
283.969505040514
 21
63.583602306601
 31
0.0
  0
LINE
  5
EB
  8
0
 10
283.969512939453
 20
63.583602905273
 30
0.0
 11
284.026031294152
 21
63.623258310624
 31
0.0
  0
LINE
  5
EC
  8
0
 10
284.026031494141
 20
63.623260498047
 30
0.0
 11
284.081147420362
 21
63.664843069735
 31
0.0
  0
LINE
  5
ED
  8
0
 10
284.081146240234
 20
63.664840698242
 30
0.0
 11
284.134794055288
 21
63.708300881531
 31
0.0
  0
LINE
  5
EE
  8
0
 10
284.134796142578
 20
63.708301544189
 30
0.0
 11
287.198973915054
 21
66.279451982936
 31
0.0
  0
LINE
  5
EF
  8
0
 10
287.198974609375
 20
66.279449462891
 30
0.0
 11
287.251090380144
 21
66.324735465458
 31
0.0
  0
LINE
  5
F0
  8
0
 10
287.251068115234
 20
66.324737548828
 30
0.0
 11
287.301589734372
 21
66.371795402489
 31
0.0
  0
LINE
  5
F1
  8
0
 10
287.301605224609
 20
66.371795654297
 30
0.0
 11
287.350472484546
 21
66.420569279318
 31
0.0
  0
LINE
  5
F2
  8
0
 10
287.350463867188
 20
66.420570373535
 30
0.0
 11
287.397618531886
 21
66.471001645466
 31
0.0
  0
LINE
  5
F3
  8
0
 10
287.397613525391
 20
66.471000671387
 30
0.0
 11
287.442999399746
 21
66.523029490328
 31
0.0
  0
LINE
  5
F4
  8
0
 10
287.442993164062
 20
66.52303314209
 30
0.0
 11
287.486556160871
 21
66.576597504314
 31
0.0
  0
LINE
  5
F5
  8
0
 10
287.486572265625
 20
66.576591491699
 30
0.0
 11
287.52826047004
 21
66.631627563544
 31
0.0
  0
LINE
  5
F6
  8
0
 10
287.528259277344
 20
66.631629943848
 30
0.0
 11
287.568023008744
 21
66.688072137786
 31
0.0
  0
LINE
  5
F7
  8
0
 10
287.568023681641
 20
66.68807220459
 30
0.0
 11
287.605815552836
 21
66.745853257393
 31
0.0
  0
LINE
  5
F8
  8
0
 10
287.605804443359
 20
66.745849609375
 30
0.0
 11
287.641579417063
 21
66.804900662269
 31
0.0
  0
LINE
  5
F9
  8
0
 10
287.6416015625
 20
66.804901123047
 30
0.0
 11
287.675317004999
 21
66.865151803778
 31
0.0
  0
LINE
  5
FA
  8
0
 10
287.67529296875
 20
66.865158081055
 30
0.0
 11
287.706908700715
 21
66.926536587747
 31
0.0
  0
LINE
  5
FB
  8
0
 10
287.706909179688
 20
66.926536560059
 30
0.0
 11
287.736387524053
 21
66.988969746786
 31
0.0
  0
LINE
  5
FC
  8
0
 10
287.736389160156
 20
66.988967895508
 30
0.0
 11
287.763694987023
 21
67.052381359461
 31
0.0
  0
LINE
  5
FD
  8
0
 10
287.763702392578
 20
67.052383422852
 30
0.0
 11
287.788803161075
 21
67.116701593008
 31
0.0
  0
LINE
  5
FE
  8
0
 10
287.788818359375
 20
67.11669921875
 30
0.0
 11
287.811684156443
 21
67.181845445931
 31
0.0
  0
LINE
  5
FF
  8
0
 10
287.811676025391
 20
67.181846618652
 30
0.0
 11
287.832279601426
 21
67.247743266867
 31
0.0
  0
LINE
  5
100
  8
0
 10
287.832275390625
 20
67.247741699219
 30
0.0
 11
287.850592191958
 21
67.314310238187
 31
0.0
  0
LINE
  5
101
  8
0
 10
287.8505859375
 20
67.314308166504
 30
0.0
 11
287.866594135652
 21
67.38146926524
 31
0.0
  0
LINE
  5
102
  8
0
 10
287.866607666016
 20
67.381469726562
 30
0.0
 11
287.880288183714
 21
67.449143347915
 31
0.0
  0
LINE
  5
103
  8
0
 10
287.880279541016
 20
67.449142456055
 30
0.0
 11
287.891616074929
 21
67.51724795209
 31
0.0
  0
LINE
  5
104
  8
0
 10
287.8916015625
 20
67.517250061035
 30
0.0
 11
287.900580602667
 21
67.585706269148
 31
0.0
  0
LINE
  5
105
  8
0
 10
287.900604248047
 20
67.585708618164
 30
0.0
 11
287.907215093975
 21
67.654433957796
 31
0.0
  0
LINE
  5
106
  8
0
 10
287.907196044922
 20
67.654434204102
 30
0.0
 11
287.911430818341
 21
67.723346773967
 31
0.0
  0
LINE
  5
107
  8
0
 10
287.911437988281
 20
67.723342895508
 30
0.0
 11
287.913291642533
 21
67.792360571196
 31
0.0
  0
LINE
  5
108
  8
0
 10
287.913299560547
 20
67.792358398438
 30
0.0
 11
287.912769886596
 21
67.861398930279
 31
0.0
  0
LINE
  5
109
  8
0
 10
287.912750244141
 20
67.861404418945
 30
0.0
 11
287.909837873209
 21
67.930385530034
 31
0.0
  0
LINE
  5
10A
  8
0
 10
287.909851074219
 20
67.930381774902
 30
0.0
 11
287.904559477034
 21
67.999221259144
 31
0.0
  0
LINE
  5
10B
  8
0
 10
287.904571533203
 20
67.999221801758
 30
0.0
 11
287.896907015862
 21
68.067837621839
 31
0.0
  0
LINE
  5
10C
  8
0
 10
287.896881103516
 20
68.067840576172
 30
0.0
 11
287.886852799968
 21
68.136150961322
 31
0.0
  0
LINE
  5
10D
  8
0
 10
287.886871337891
 20
68.13614654541
 30
0.0
 11
287.874491199056
 21
68.204070088853
 31
0.0
  0
LINE
  5
10E
  8
0
 10
287.874481201172
 20
68.204071044922
 30
0.0
 11
287.859763980695
 21
68.271526800887
 31
0.0
  0
LINE
  5
10F
  8
0
 10
287.859771728516
 20
68.271530151367
 30
0.0
 11
287.842734965186
 21
68.338437731556
 31
0.0
  0
LINE
  5
110
  8
0
 10
287.842742919922
 20
68.338432312012
 30
0.0
 11
287.823406916773
 21
68.404711981396
 31
0.0
  0
LINE
  5
111
  8
0
 10
287.823394775391
 20
68.404716491699
 30
0.0
 11
287.801782575503
 21
68.470289263544
 31
0.0
  0
LINE
  5
112
  8
0
 10
287.801788330078
 20
68.470291137695
 30
0.0
 11
287.777925689118
 21
68.53507886769
 31
0.0
  0
LINE
  5
113
  8
0
 10
287.777923583984
 20
68.535079956055
 30
0.0
 11
287.751838939512
 21
68.599005435437
 31
0.0
  0
LINE
  5
114
  8
0
 10
287.751831054688
 20
68.598999023438
 30
0.0
 11
287.723555492268
 21
68.661986071005
 31
0.0
  0
LINE
  5
115
  8
0
 10
287.723571777344
 20
68.661987304688
 30
0.0
 11
287.693138993498
 21
68.723960857586
 31
0.0
  0
LINE
  5
116
  8
0
 10
287.693115234375
 20
68.723960876465
 30
0.0
 11
287.660561496426
 21
68.784847079639
 31
0.0
  0
LINE
  5
117
  8
0
 10
287.660583496094
 20
68.784851074219
 30
0.0
 11
287.625947598947
 21
68.844577368431
 31
0.0
  0
LINE
  5
118
  8
0
 10
287.625946044922
 20
68.844573974609
 30
0.0
 11
287.589269264831
 21
68.903069182905
 31
0.0
  0
LINE
  5
119
  8
0
 10
287.589263916016
 20
68.90306854248
 30
0.0
 11
287.550589961392
 21
68.960262955015
 31
0.0
  0
LINE
  5
11A
  8
0
 10
287.550598144531
 20
68.960266113281
 30
0.0
 11
287.509973103858
 21
69.016091570393
 31
0.0
  0
LINE
  5
11B
  8
0
 10
287.509948730469
 20
69.016090393066
 30
0.0
 11
287.467421017374
 21
69.070480366502
 31
0.0
  0
LINE
  5
11C
  8
0
 10
287.467437744141
 20
69.07048034668
 30
0.0
 11
287.423058039704
 21
69.123370018881
 31
0.0
  0
LINE
  5
11D
  8
0
 10
287.423065185547
 20
69.12336730957
 30
0.0
 11
287.3768863779
 21
69.174693650915
 31
0.0
  0
LINE
  5
11E
  8
0
 10
287.376892089844
 20
69.174697875977
 30
0.0
 11
287.328969211145
 21
69.224399719893
 31
0.0
  0
LINE
  5
11F
  8
0
 10
287.328948974609
 20
69.224395751953
 30
0.0
 11
287.27933913546
 21
69.272413867815
 31
0.0
  0
LINE
  5
120
  8
0
 10
287.279357910156
 20
69.272415161133
 30
0.0
 11
287.228120231538
 21
69.318692324845
 31
0.0
  0
LINE
  5
121
  8
0
 10
287.228118896484
 20
69.318695068359
 30
0.0
 11
287.175314439307
 21
69.36317613055
 31
0.0
  0
LINE
  5
122
  8
0
 10
287.17529296875
 20
69.363174438477
 30
0.0
 11
287.120984661083
 21
69.405806390224
 31
0.0
  0
LINE
  5
123
  8
0
 10
287.121002197266
 20
69.405807495117
 30
0.0
 11
287.065254759346
 21
69.446539531119
 31
0.0
  0
LINE
  5
124
  8
0
 10
287.065246582031
 20
69.44654083252
 30
0.0
 11
287.008126449134
 21
69.485324411638
 31
0.0
  0
LINE
  5
125
  8
0
 10
287.008117675781
 20
69.485321044922
 30
0.0
 11
286.949692919048
 21
69.522109948033
 31
0.0
  0
LINE
  5
126
  8
0
 10
286.94970703125
 20
69.522109985352
 30
0.0
 11
286.890047276568
 21
69.556860370425
 31
0.0
  0
LINE
  5
127
  8
0
 10
286.890045166016
 20
69.556861877441
 30
0.0
 11
286.829221511042
 21
69.589532331786
 31
0.0
  0
LINE
  5
128
  8
0
 10
286.829223632812
 20
69.589530944824
 30
0.0
 11
286.767308562246
 21
69.620082534442
 31
0.0
  0
LINE
  5
129
  8
0
 10
286.767303466797
 20
69.620086669922
 30
0.0
 11
286.704370765997
 21
69.648482985906
 31
0.0
  0
LINE
  5
12A
  8
0
 10
286.704376220703
 20
69.648475646973
 30
0.0
 11
286.640500887759
 21
69.674682848898
 31
0.0
  0
LINE
  5
12B
  8
0
 10
286.640502929688
 20
69.674682617188
 30
0.0
 11
286.575761086041
 21
69.698669473435
 31
0.0
  0
LINE
  5
12C
  8
0
 10
286.575744628906
 20
69.698677062988
 30
0.0
 11
286.510213428635
 21
69.720414987968
 31
0.0
  0
LINE
  5
12D
  8
0
 10
286.510223388672
 20
69.720413208008
 30
0.0
 11
286.443980926546
 21
69.739876296224
 31
0.0
  0
LINE
  5
12E
  8
0
 10
286.443969726562
 20
69.739875793457
 30
0.0
 11
286.377094944976
 21
69.75704085038
 31
0.0
  0
LINE
  5
12F
  8
0
 10
286.377105712891
 20
69.757041931152
 30
0.0
 11
286.309678307784
 21
69.771888500859
 31
0.0
  0
LINE
  5
130
  8
0
 10
286.309692382812
 20
69.77188873291
 30
0.0
 11
286.241792708699
 21
69.784399122463
 31
0.0
  0
LINE
  5
131
  8
0
 10
286.241790771484
 20
69.784393310547
 30
0.0
 11
286.173499745689
 21
69.794552611078
 31
0.0
  0
LINE
  5
132
  8
0
 10
286.173492431641
 20
69.794555664062
 30
0.0
 11
286.10489143787
 21
69.802351768542
 31
0.0
  0
LINE
  5
133
  8
0
 10
286.104888916016
 20
69.802352905273
 30
0.0
 11
286.036059707369
 21
69.807776522936
 31
0.0
  0
LINE
  5
134
  8
0
 10
286.036071777344
 20
69.807777404785
 30
0.0
 11
285.967096378891
 21
69.810822072203
 31
0.0
  0
LINE
  5
135
  8
0
 10
285.967071533203
 20
69.810821533203
 30
0.0
 11
285.898032144229
 21
69.811483621989
 31
0.0
  0
LINE
  5
136
  8
0
 10
285.898040771484
 20
69.811485290527
 30
0.0
 11
285.829019667534
 21
69.809764011657
 31
0.0
  0
LINE
  5
137
  8
0
 10
285.829010009766
 20
69.809761047363
 30
0.0
 11
285.760089444593
 21
69.805658452117
 31
0.0
  0
LINE
  5
138
  8
0
 10
285.760101318359
 20
69.805656433105
 30
0.0
 11
285.691363425905
 21
69.799177410624
 31
0.0
  0
LINE
  5
139
  8
0
 10
285.691375732422
 20
69.799179077148
 30
0.0
 11
285.62290242893
 21
69.790331348606
 31
0.0
  0
LINE
  5
13A
  8
0
 10
285.622894287109
 20
69.790328979492
 30
0.0
 11
285.55476717351
 21
69.779123088893
 31
0.0
  0
LINE
  5
13B
  8
0
 10
285.554748535156
 20
69.77912902832
 30
0.0
 11
285.487048799819
 21
69.765578329936
 31
0.0
  0
LINE
  5
13C
  8
0
 10
285.487060546875
 20
69.765571594238
 30
0.0
 11
285.419868868853
 21
69.749692236693
 31
0.0
  0
LINE
  5
13D
  8
0
 10
285.419860839844
 20
69.749694824219
 30
0.0
 11
285.35325729273
 21
69.731505731242
 31
0.0
  0
LINE
  5
13E
  8
0
 10
285.353271484375
 20
69.731506347656
 30
0.0
 11
285.287335440875
 21
69.711029195535
 31
0.0
  0
LINE
  5
13F
  8
0
 10
285.287322998047
 20
69.711029052734
 30
0.0
 11
285.22213303539
 21
69.688288244477
 31
0.0
  0
LINE
  5
140
  8
0
 10
285.222137451172
 20
69.688285827637
 30
0.0
 11
285.157771257468
 21
69.663308463894
 31
0.0
  0
LINE
  5
141
  8
0
 10
285.157775878906
 20
69.663314819336
 30
0.0
 11
285.094310160565
 21
69.636130666105
 31
0.0
  0
LINE
  5
142
  8
0
 10
285.094299316406
 20
69.636123657227
 30
0.0
 11
285.031809706724
 21
69.606765110376
 31
0.0
  0
LINE
  5
143
  8
0
 10
285.031829833984
 20
69.60676574707
 30
0.0
 11
284.970390803009
 21
69.575267793735
 31
0.0
  0
LINE
  5
144
  8
0
 10
284.970367431641
 20
69.575271606445
 30
0.0
 11
284.910052197428
 21
69.541671783332
 31
0.0
  0
LINE
  5
145
  8
0
 10
284.910064697266
 20
69.54167175293
 30
0.0
 11
284.850945138619
 21
69.506010101582
 31
0.0
  0
LINE
  5
146
  8
0
 10
284.850952148438
 20
69.506011962891
 30
0.0
 11
284.793098719252
 21
69.468330981973
 31
0.0
  0
LINE
  5
147
  8
0
 10
284.793090820312
 20
69.468330383301
 30
0.0
 11
284.736572465613
 21
69.42867497795
 31
0.0
  0
LINE
  5
148
  8
0
 10
284.736572265625
 20
69.428672790527
 30
0.0
 11
284.681456339403
 21
69.38709021884
 31
0.0
  0
LINE
  5
149
  8
0
 10
284.681457519531
 20
69.387092590332
 30
0.0
 11
284.627809704478
 21
69.343632407044
 31
0.0
  0
LINE
  5
14A
  8
0
 10
284.627807617188
 20
69.343627929688
 30
0.0
 11
281.563629844712
 21
66.772477490941
 31
0.0
  0
LINE
  5
14B
  8
0
 10
281.563629150391
 20
66.772476196289
 30
0.0
 11
281.511513379621
 21
66.727190193722
 31
0.0
  0
LINE
  5
14C
  8
0
 10
281.511505126953
 20
66.727195739746
 30
0.0
 11
281.460983507816
 21
66.680137886085
 31
0.0
  0
LINE
  5
14D
  8
0
 10
281.460998535156
 20
66.680137634277
 30
0.0
 11
281.41213127522
 21
66.631364009256
 31
0.0
  0
LINE
  5
14E
  8
0
 10
281.412139892578
 20
66.631362915039
 30
0.0
 11
281.36498522788
 21
66.580931643108
 31
0.0
  0
LINE
  5
14F
  8
0
 10
281.364959716797
 20
66.580932617188
 30
0.0
 11
281.319573842441
 21
66.528903798246
 31
0.0
  0
LINE
  5
150
  8
0
 10
281.319580078125
 20
66.528900146484
 30
0.0
 11
281.276017081317
 21
66.47533578426
 31
0.0
  0
LINE
  5
151
  8
0
 10
281.276031494141
 20
66.47533416748
 30
0.0
 11
281.234343289726
 21
66.420298095636
 31
0.0
  0
LINE
  5
152
  8
0
 10
281.234344482422
 20
66.420303344727
 30
0.0
 11
281.194580751022
 21
66.363861150788
 31
0.0
  0
LINE
  5
153
  8
0
 10
281.194580078125
 20
66.363861083984
 30
0.0
 11
281.15678820693
 21
66.306080031182
 31
0.0
  0
LINE
  5
154
  8
0
 10
281.156768798828
 20
66.306076049805
 30
0.0
 11
281.120993825125
 21
66.24702499691
 31
0.0
  0
LINE
  5
155
  8
0
 10
281.121002197266
 20
66.247024536133
 30
0.0
 11
281.087286754766
 21
66.186773855402
 31
0.0
  0
LINE
  5
156
  8
0
 10
281.087280273438
 20
66.18677520752
 30
0.0
 11
281.055664541472
 21
66.125396700828
 31
0.0
  0
LINE
  5
157
  8
0
 10
281.0556640625
 20
66.125396728516
 30
0.0
 11
281.026185718134
 21
66.062963541789
 31
0.0
  0
LINE
  5
158
  8
0
 10
281.026184082031
 20
66.062965393066
 30
0.0
 11
280.998878255165
 21
65.999551929113
 31
0.0
  0
LINE
  5
159
  8
0
 10
280.998901367188
 20
65.999549865723
 30
0.0
 11
280.97380059869
 21
65.935231695566
 31
0.0
  0
LINE
  5
15A
  8
0
 10
280.973785400391
 20
65.935234069824
 30
0.0
 11
280.950919603323
 21
65.870087842643
 31
0.0
  0
LINE
  5
15B
  8
0
 10
280.950927734375
 20
65.870086669922
 30
0.0
 11
280.930324158339
 21
65.804190021707
 31
0.0
  0
LINE
  5
15C
  8
0
 10
280.930328369141
 20
65.804191589355
 30
0.0
 11
280.912011567808
 21
65.737623050387
 31
0.0
  0
LINE
  5
15D
  8
0
 10
280.912017822266
 20
65.73762512207
 30
0.0
 11
280.896009624114
 21
65.670464023335
 31
0.0
  0
LINE
  5
15E
  8
0
 10
280.89599609375
 20
65.670463562012
 30
0.0
 11
280.882315576052
 21
65.602789940659
 31
0.0
  0
LINE
  5
15F
  8
0
 10
280.88232421875
 20
65.602783203125
 30
0.0
 11
280.870987684837
 21
65.534677707089
 31
0.0
  0
LINE
  5
160
  8
0
 10
280.870971679688
 20
65.534683227539
 30
0.0
 11
280.861992639521
 21
65.466227019427
 31
0.0
  0
LINE
  5
161
  8
0
 10
280.861999511719
 20
65.46622467041
 30
0.0
 11
280.855388665791
 21
65.397499330778
 31
0.0
  0
LINE
  5
162
  8
0
 10
280.855377197266
 20
65.397499084473
 30
0.0
 11
280.851142423846
 21
65.328586514607
 31
0.0
  0
LINE
  5
163
  8
0
 10
280.851165771484
 20
65.328590393066
 30
0.0
 11
280.849312117233
 21
65.259572717379
 31
0.0
  0
LINE
  5
164
  8
0
 10
280.849304199219
 20
65.259567260742
 30
0.0
 11
280.84983387317
 21
65.190526728901
 31
0.0
  0
LINE
  5
165
  8
0
 10
280.849822998047
 20
65.190528869629
 30
0.0
 11
280.852735368978
 21
65.12154775854
 31
0.0
  0
LINE
  5
166
  8
0
 10
280.852752685547
 20
65.121551513672
 30
0.0
 11
280.858044282731
 21
65.05271202943
 31
0.0
  0
LINE
  5
167
  8
0
 10
280.858032226562
 20
65.052711486816
 30
0.0
 11
280.865696743903
 21
64.984095666736
 31
0.0
  0
LINE
  5
168
  8
0
 10
280.865692138672
 20
64.984092712402
 30
0.0
 11
280.875720442219
 21
64.915782327252
 31
0.0
  0
LINE
  5
169
  8
0
 10
280.875732421875
 20
64.91577911377
 30
0.0
 11
280.88811256071
 21
64.847855570326
 31
0.0
  0
LINE
  5
16A
  8
0
 10
280.888092041016
 20
64.847862243652
 30
0.0
 11
280.902809261492
 21
64.780406487687
 31
0.0
  0
LINE
  5
16B
  8
0
 10
280.90283203125
 20
64.780403137207
 30
0.0
 11
280.919868794579
 21
64.713495557018
 31
0.0
  0
LINE
  5
16C
  8
0
 10
280.919860839844
 20
64.713493347168
 30
0.0
 11
280.939196842992
 21
64.647213677784
 31
0.0
  0
LINE
  5
16D
  8
0
 10
280.939208984375
 20
64.647216796875
 30
0.0
 11
280.960821184263
 21
64.58164402503
 31
0.0
  0
LINE
  5
16E
  8
0
 10
280.960815429688
 20
64.581642150879
 30
0.0
 11
280.984678070647
 21
64.516854420884
 31
0.0
  0
LINE
  5
16F
  8
0
 10
280.984680175781
 20
64.51685333252
 30
0.0
 11
281.010764820253
 21
64.452927853138
 31
0.0
  0
LINE
  5
170
  8
0
 10
281.0107421875
 20
64.452926635742
 30
0.0
 11
281.03901774992
 21
64.389939588175
 31
0.0
  0
LINE
  5
171
  8
0
 10
281.039031982422
 20
64.389945983887
 30
0.0
 11
281.069464766268
 21
64.327972430989
 31
0.0
  0
LINE
  5
172
  8
0
 10
281.069458007812
 20
64.327972412109
 30
0.0
 11
281.102011745761
 21
64.267086208935
 31
0.0
  0
LINE
  5
173
  8
0
 10
281.102020263672
 20
64.267082214355
 30
0.0
 11
281.136656160818
 21
64.207355920143
 31
0.0
  0
LINE
  5
174
  8
0
 10
281.136657714844
 20
64.207359313965
 30
0.0
 11
281.173334494935
 21
64.148864105669
 31
0.0
  0
LINE
  5
175
  8
0
 10
281.17333984375
 20
64.148864746094
 30
0.0
 11
281.212013798373
 21
64.091670333559
 31
0.0
  0
LINE
  5
176
  8
0
 10
281.212005615234
 20
64.091667175293
 30
0.0
 11
281.252630655908
 21
64.035841718181
 31
0.0
  0
LINE
  5
177
  8
0
 10
281.252624511719
 20
64.035842895508
 30
0.0
 11
281.295152224814
 21
63.981452922072
 31
0.0
  0
LINE
  5
178
  8
0
 10
281.295166015625
 20
63.981452941895
 30
0.0
 11
281.339545720062
 21
63.928563269694
 31
0.0
  0
LINE
  5
179
  8
0
 10
281.339538574219
 20
63.928562164307
 30
0.0
 11
281.385717381865
 21
63.877235822962
 31
0.0
  0
LINE
  5
17A
  8
0
 10
281.385711669922
 20
63.877235412598
 30
0.0
 11
281.43363454862
 21
63.827533568681
 31
0.0
  0
LINE
  5
17B
  8
0
 10
281.433624267578
 20
63.827533721924
 30
0.0
 11
281.483234106728
 21
63.779515606062
 31
0.0
  0
LINE
  5
17C
  8
0
 10
281.483245849609
 20
63.779514312744
 30
0.0
 11
281.534483528228
 21
63.733237149032
 31
0.0
  0
LINE
  5
17D
  8
0
 10
281.534484863281
 20
63.733238220215
 30
0.0
 11
281.587289320459
 21
63.688757158024
 31
0.0
  0
LINE
  5
17E
  8
0
 10
281.587280273438
 20
63.688758850098
 30
0.0
 11
281.641588581104
 21
63.64612689835
 31
0.0
  0
LINE
  5
17F
  8
0
 10
281.6416015625
 20
63.646125793457
 30
0.0
 11
281.697349000419
 21
63.605393757455
 31
0.0
  0
LINE
  5
180
  8
0
 10
281.697357177734
 20
63.605392456055
 30
0.0
 11
281.754477310632
 21
63.566608876936
 31
0.0
  0
LINE
  5
181
  8
0
 10
281.754455566406
 20
63.566608428955
 30
0.0
 11
281.812880323139
 21
63.529819525843
 31
0.0
  0
LINE
  5
182
  8
0
 10
281.812896728516
 20
63.529819488525
 30
0.0
 11
281.872556483197
 21
63.495069103452
 31
0.0
  0
LINE
  5
183
  8
0
 10
281.87255859375
 20
63.495071411133
 30
0.0
 11
281.933382248724
 21
63.462400956788
 31
0.0
  0
LINE
  5
184
  8
0
 10
281.933380126953
 20
63.462398529053
 30
0.0
 11
281.99529519752
 21
63.431846939435
 31
0.0
  0
LINE
  5
185
  8
0
 10
281.995300292969
 20
63.431846618652
 30
0.0
 11
282.058232993768
 21
63.403450302668
 31
0.0
  0
LINE
  5
186
  8
0
 10
282.058227539062
 20
63.403453826904
 30
0.0
 11
282.122102872007
 21
63.377246624979
 31
0.0
  0
LINE
  5
187
  8
0
 10
282.122100830078
 20
63.377246856689
 30
0.0
 11
282.186842673725
 21
63.353260000442
 31
0.0
  0
LINE
  5
188
  8
0
 10
282.186828613281
 20
63.353260040283
 30
0.0
 11
282.252359813553
 21
63.331522115303
 31
0.0
  0
LINE
  5
189
  8
0
 10
282.252380371094
 20
63.331520080566
 30
0.0
 11
282.31862283322
 21
63.31205699235
 31
0.0
  0
LINE
  5
18A
  8
0
 10
282.318603515625
 20
63.312057495117
 30
0.0
 11
282.385478297212
 21
63.294892438194
 31
0.0
  0
LINE
  5
18B
  8
0
 10
282.385498046875
 20
63.294891357422
 30
0.0
 11
282.452925451981
 21
63.280044787715
 31
0.0
  0
LINE
  5
18C
  8
0
 10
282.452911376953
 20
63.280044555664
 30
0.0
 11
282.520811051066
 21
63.267534166111
 31
0.0
  0
LINE
  5
18D
  8
0
 10
282.520812988281
 20
63.26753616333
 30
0.0
 11
282.589104014076
 21
63.257376862799
 31
0.0
  0
LINE
  5
18E
  8
0
 10
282.589111328125
 20
63.257377624512
 30
0.0
 11
282.657712321896
 21
63.249581520032
 31
0.0
  0
LINE
  5
18F
  8
0
 10
282.65771484375
 20
63.249580383301
 30
0.0
 11
282.726544052396
 21
63.244156765638
 31
0.0
  0
LINE
  5
190
  8
0
 10
282.726531982422
 20
63.244155883789
 30
0.0
 11
282.795507380875
 21
63.241111216371
 31
0.0
  0
LINE
  5
191
  8
0
 10
282.795501708984
 20
63.241111755371
 30
0.0
 11
282.864541097958
 21
63.240449666585
 31
0.0
  0
LINE
  5
192
  8
0
 10
138.864547729492
 20
70.240447998047
 30
0.0
 11
138.933568833442
 21
70.242169276917
 31
0.0
  0
LINE
  5
193
  8
0
 10
138.933578491211
 20
70.242172241211
 30
0.0
 11
139.002499056383
 21
70.246274836457
 31
0.0
  0
LINE
  5
194
  8
0
 10
139.002487182617
 20
70.246276855469
 30
0.0
 11
139.071225075072
 21
70.25275587795
 31
0.0
  0
LINE
  5
195
  8
0
 10
139.071228027344
 20
70.252754211426
 30
0.0
 11
139.139701330835
 21
70.261601939969
 31
0.0
  0
LINE
  5
196
  8
0
 10
139.139709472656
 20
70.261596679688
 30
0.0
 11
139.207836586255
 21
70.272802570287
 31
0.0
  0
LINE
  5
197
  8
0
 10
139.207824707031
 20
70.272804260254
 30
0.0
 11
139.275524442369
 21
70.286354958638
 31
0.0
  0
LINE
  5
198
  8
0
 10
139.275527954102
 20
70.286354064941
 30
0.0
 11
139.342719632123
 21
70.302233422487
 31
0.0
  0
LINE
  5
199
  8
0
 10
139.342727661133
 20
70.302238464355
 30
0.0
 11
139.409331208246
 21
70.320427557332
 31
0.0
  0
LINE
  5
19A
  8
0
 10
139.409332275391
 20
70.320426940918
 30
0.0
 11
139.475268318891
 21
70.34090409304
 31
0.0
  0
LINE
  5
19B
  8
0
 10
139.47526550293
 20
70.34090423584
 30
0.0
 11
139.540455465587
 21
70.363645044097
 31
0.0
  0
LINE
  5
19C
  8
0
 10
139.540451049805
 20
70.363639831543
 30
0.0
 11
139.604817243508
 21
70.388617195286
 31
0.0
  0
LINE
  5
19D
  8
0
 10
139.60481262207
 20
70.388618469238
 30
0.0
 11
139.668278340411
 21
70.415802622469
 31
0.0
  0
LINE
  5
19E
  8
0
 10
139.66828918457
 20
70.415802001953
 30
0.0
 11
139.730778794253
 21
70.445160548804
 31
0.0
  0
LINE
  5
19F
  8
0
 10
139.730773925781
 20
70.445159912109
 30
0.0
 11
139.792212956756
 21
70.476657865445
 31
0.0
  0
LINE
  5
1A0
  8
0
 10
139.792205810547
 20
70.476661682129
 30
0.0
 11
139.85252104476
 21
70.510261505242
 31
0.0
  0
LINE
  5
1A1
  8
0
 10
139.852523803711
 20
70.510261535645
 30
0.0
 11
139.911643362358
 21
70.545923186992
 31
0.0
  0
LINE
  5
1A2
  8
0
 10
139.911651611328
 20
70.545921325684
 30
0.0
 11
139.969505040514
 21
70.583602306601
 31
0.0
  0
LINE
  5
1A3
  8
0
 10
139.969497680664
 20
70.583602905273
 30
0.0
 11
140.026016035363
 21
70.623258310624
 31
0.0
  0
LINE
  5
1A4
  8
0
 10
140.026016235352
 20
70.623260498047
 30
0.0
 11
140.081132161573
 21
70.664843069735
 31
0.0
  0
LINE
  5
1A5
  8
0
 10
140.081130981445
 20
70.664840698242
 30
0.0
 11
140.134778796498
 21
70.708300881531
 31
0.0
  0
LINE
  5
1A6
  8
0
 10
140.134780883789
 20
70.708305358887
 30
0.0
 11
143.198958656265
 21
73.279455797633
 31
0.0
  0
LINE
  5
1A7
  8
0
 10
143.198959350586
 20
73.279449462891
 30
0.0
 11
143.251075121355
 21
73.324735465458
 31
0.0
  0
LINE
  5
1A8
  8
0
 10
143.251083374023
 20
73.324737548828
 30
0.0
 11
143.301604993161
 21
73.371795402489
 31
0.0
  0
LINE
  5
1A9
  8
0
 10
143.301605224609
 20
73.371795654297
 30
0.0
 11
143.350472484546
 21
73.420569279318
 31
0.0
  0
LINE
  5
1AA
  8
0
 10
143.350463867188
 20
73.420570373535
 30
0.0
 11
143.397618531886
 21
73.471001645466
 31
0.0
  0
LINE
  5
1AB
  8
0
 10
143.397613525391
 20
73.471000671387
 30
0.0
 11
143.442999399746
 21
73.523029490328
 31
0.0
  0
LINE
  5
1AC
  8
0
 10
143.443008422852
 20
73.52303314209
 30
0.0
 11
143.48657141966
 21
73.576597504314
 31
0.0
  0
LINE
  5
1AD
  8
0
 10
143.486572265625
 20
73.576591491699
 30
0.0
 11
143.52826047004
 21
73.631627563544
 31
0.0
  0
LINE
  5
1AE
  8
0
 10
143.528259277344
 20
73.631629943848
 30
0.0
 11
143.568023008744
 21
73.688072137786
 31
0.0
  0
LINE
  5
1AF
  8
0
 10
143.568023681641
 20
73.68807220459
 30
0.0
 11
143.605815552836
 21
73.745853257393
 31
0.0
  0
LINE
  5
1B0
  8
0
 10
143.605819702148
 20
73.745849609375
 30
0.0
 11
143.641594675852
 21
73.80490066227
 31
0.0
  0
LINE
  5
1B1
  8
0
 10
143.641586303711
 20
73.804901123047
 30
0.0
 11
143.67530174621
 21
73.865151803778
 31
0.0
  0
LINE
  5
1B2
  8
0
 10
143.675308227539
 20
73.865158081055
 30
0.0
 11
143.706923959504
 21
73.926536587747
 31
0.0
  0
LINE
  5
1B3
  8
0
 10
143.706924438477
 20
73.926536560059
 30
0.0
 11
143.736402782842
 21
73.988969746786
 31
0.0
  0
LINE
  5
1B4
  8
0
 10
143.736404418945
 20
73.988967895508
 30
0.0
 11
143.763710245812
 21
74.052381359461
 31
0.0
  0
LINE
  5
1B5
  8
0
 10
143.763702392578
 20
74.052383422852
 30
0.0
 11
143.788803161075
 21
74.116701593008
 31
0.0
  0
LINE
  5
1B6
  8
0
 10
143.788803100586
 20
74.11669921875
 30
0.0
 11
143.811668897654
 21
74.181845445931
 31
0.0
  0
LINE
  5
1B7
  8
0
 10
143.811676025391
 20
74.181846618652
 30
0.0
 11
143.832279601426
 21
74.247743266867
 31
0.0
  0
LINE
  5
1B8
  8
0
 10
143.832275390625
 20
74.247741699219
 30
0.0
 11
143.850592191958
 21
74.314310238187
 31
0.0
  0
LINE
  5
1B9
  8
0
 10
143.8505859375
 20
74.314308166504
 30
0.0
 11
143.866594135652
 21
74.38146926524
 31
0.0
  0
LINE
  5
1BA
  8
0
 10
143.866592407227
 20
74.381469726562
 30
0.0
 11
143.880272924925
 21
74.449143347915
 31
0.0
  0
LINE
  5
1BB
  8
0
 10
143.880279541016
 20
74.449142456055
 30
0.0
 11
143.891616074929
 21
74.51724795209
 31
0.0
  0
LINE
  5
1BC
  8
0
 10
143.891616821289
 20
74.517250061035
 30
0.0
 11
143.900595861456
 21
74.585706269148
 31
0.0
  0
LINE
  5
1BD
  8
0
 10
143.900588989258
 20
74.585708618164
 30
0.0
 11
143.907199835186
 21
74.654433957796
 31
0.0
  0
LINE
  5
1BE
  8
0
 10
143.907211303711
 20
74.654434204102
 30
0.0
 11
143.911446077131
 21
74.723346773967
 31
0.0
  0
LINE
  5
1BF
  8
0
 10
143.911437988281
 20
74.723342895508
 30
0.0
 11
143.913291642533
 21
74.792360571196
 31
0.0
  0
LINE
  5
1C0
  8
0
 10
143.913299560547
 20
74.792358398438
 30
0.0
 11
143.912769886596
 21
74.861398930279
 31
0.0
  0
LINE
  5
1C1
  8
0
 10
143.91276550293
 20
74.861404418945
 30
0.0
 11
143.909853131998
 21
74.930385530034
 31
0.0
  0
LINE
  5
1C2
  8
0
 10
143.909851074219
 20
74.930381774902
 30
0.0
 11
143.904559477034
 21
74.999221259144
 31
0.0
  0
LINE
  5
1C3
  8
0
 10
143.904556274414
 20
74.999221801758
 30
0.0
 11
143.896891757073
 21
75.067837621839
 31
0.0
  0
LINE
  5
1C4
  8
0
 10
143.896896362305
 20
75.067840576172
 30
0.0
 11
143.886868058757
 21
75.136150961322
 31
0.0
  0
LINE
  5
1C5
  8
0
 10
143.886871337891
 20
75.13614654541
 30
0.0
 11
143.874491199056
 21
75.204070088853
 31
0.0
  0
LINE
  5
1C6
  8
0
 10
143.874481201172
 20
75.204071044922
 30
0.0
 11
143.859763980695
 21
75.271526800887
 31
0.0
  0
LINE
  5
1C7
  8
0
 10
143.859771728516
 20
75.271530151367
 30
0.0
 11
143.842734965187
 21
75.338437731556
 31
0.0
  0
LINE
  5
1C8
  8
0
 10
143.842727661133
 20
75.338432312012
 30
0.0
 11
143.823391657984
 21
75.404711981396
 31
0.0
  0
LINE
  5
1C9
  8
0
 10
143.823394775391
 20
75.404716491699
 30
0.0
 11
143.801782575503
 21
75.470289263544
 31
0.0
  0
LINE
  5
1CA
  8
0
 10
143.801788330078
 20
75.470291137695
 30
0.0
 11
143.777925689118
 21
75.53507886769
 31
0.0
  0
LINE
  5
1CB
  8
0
 10
143.777923583984
 20
75.535079956055
 30
0.0
 11
143.751838939513
 21
75.599005435437
 31
0.0
  0
LINE
  5
1CC
  8
0
 10
143.751831054688
 20
75.598999023438
 30
0.0
 11
143.723555492268
 21
75.661986071005
 31
0.0
  0
LINE
  5
1CD
  8
0
 10
143.723556518555
 20
75.661987304688
 30
0.0
 11
143.693123734709
 21
75.723960857586
 31
0.0
  0
LINE
  5
1CE
  8
0
 10
143.693130493164
 20
75.723960876465
 30
0.0
 11
143.660576755215
 21
75.784847079639
 31
0.0
  0
LINE
  5
1CF
  8
0
 10
143.660568237305
 20
75.784851074219
 30
0.0
 11
143.625932340158
 21
75.844577368431
 31
0.0
  0
LINE
  5
1D0
  8
0
 10
143.625946044922
 20
75.844573974609
 30
0.0
 11
143.589269264831
 21
75.903069182905
 31
0.0
  0
LINE
  5
1D1
  8
0
 10
143.589263916016
 20
75.90306854248
 30
0.0
 11
143.550589961392
 21
75.960262955015
 31
0.0
  0
LINE
  5
1D2
  8
0
 10
143.550582885742
 20
75.960266113281
 30
0.0
 11
143.509957845069
 21
76.016091570393
 31
0.0
  0
LINE
  5
1D3
  8
0
 10
143.509963989258
 20
76.016090393066
 30
0.0
 11
143.467436276163
 21
76.070480366502
 31
0.0
  0
LINE
  5
1D4
  8
0
 10
143.467437744141
 20
76.07048034668
 30
0.0
 11
143.423058039704
 21
76.123370018881
 31
0.0
  0
LINE
  5
1D5
  8
0
 10
143.423049926758
 20
76.12336730957
 30
0.0
 11
143.376871119111
 21
76.174693650915
 31
0.0
  0
LINE
  5
1D6
  8
0
 10
143.376876831055
 20
76.174697875977
 30
0.0
 11
143.328953952356
 21
76.224399719893
 31
0.0
  0
LINE
  5
1D7
  8
0
 10
143.328948974609
 20
76.224395751953
 30
0.0
 11
143.27933913546
 21
76.272413867815
 31
0.0
  0
LINE
  5
1D8
  8
0
 10
143.279342651367
 20
76.272415161133
 30
0.0
 11
143.228104972749
 21
76.318692324845
 31
0.0
  0
LINE
  5
1D9
  8
0
 10
143.228103637695
 20
76.318695068359
 30
0.0
 11
143.175299180518
 21
76.36317613055
 31
0.0
  0
LINE
  5
1DA
  8
0
 10
143.175308227539
 20
76.363174438477
 30
0.0
 11
143.120999919872
 21
76.405806390224
 31
0.0
  0
LINE
  5
1DB
  8
0
 10
143.120986938477
 20
76.405807495117
 30
0.0
 11
143.065239500557
 21
76.446539531119
 31
0.0
  0
LINE
  5
1DC
  8
0
 10
143.065246582031
 20
76.44654083252
 30
0.0
 11
143.008126449134
 21
76.485324411638
 31
0.0
  0
LINE
  5
1DD
  8
0
 10
143.00813293457
 20
76.485321044922
 30
0.0
 11
142.949708177838
 21
76.522109948033
 31
0.0
  0
LINE
  5
1DE
  8
0
 10
142.94970703125
 20
76.522109985352
 30
0.0
 11
142.890047276568
 21
76.556860370425
 31
0.0
  0
LINE
  5
1DF
  8
0
 10
142.890045166016
 20
76.556861877441
 30
0.0
 11
142.829221511042
 21
76.589532331786
 31
0.0
  0
LINE
  5
1E0
  8
0
 10
142.829223632812
 20
76.589530944824
 30
0.0
 11
142.767308562246
 21
76.620082534442
 31
0.0
  0
LINE
  5
1E1
  8
0
 10
142.767303466797
 20
76.620086669922
 30
0.0
 11
142.704370765997
 21
76.648482985906
 31
0.0
  0
LINE
  5
1E2
  8
0
 10
142.704376220703
 20
76.648475646973
 30
0.0
 11
142.640500887759
 21
76.674682848898
 31
0.0
  0
LINE
  5
1E3
  8
0
 10
142.640502929688
 20
76.674682617188
 30
0.0
 11
142.575761086041
 21
76.698669473435
 31
0.0
  0
LINE
  5
1E4
  8
0
 10
142.575759887695
 20
76.698677062988
 30
0.0
 11
142.510228687424
 21
76.720414987968
 31
0.0
  0
LINE
  5
1E5
  8
0
 10
142.510223388672
 20
76.720413208008
 30
0.0
 11
142.443980926546
 21
76.739876296224
 31
0.0
  0
LINE
  5
1E6
  8
0
 10
142.443984985352
 20
76.739875793457
 30
0.0
 11
142.377110203765
 21
76.75704085038
 31
0.0
  0
LINE
  5
1E7
  8
0
 10
142.377105712891
 20
76.757041931152
 30
0.0
 11
142.309678307784
 21
76.771888500859
 31
0.0
  0
LINE
  5
1E8
  8
0
 10
142.309677124023
 20
76.77188873291
 30
0.0
 11
142.24177744991
 21
76.784399122463
 31
0.0
  0
LINE
  5
1E9
  8
0
 10
142.241775512695
 20
76.784393310547
 30
0.0
 11
142.1734844869
 21
76.794552611078
 31
0.0
  0
LINE
  5
1EA
  8
0
 10
142.173492431641
 20
76.794555664062
 30
0.0
 11
142.10489143787
 21
76.802351768542
 31
0.0
  0
LINE
  5
1EB
  8
0
 10
142.104888916016
 20
76.802352905273
 30
0.0
 11
142.036059707369
 21
76.807776522936
 31
0.0
  0
LINE
  5
1EC
  8
0
 10
142.036056518555
 20
76.807777404785
 30
0.0
 11
141.967081120102
 21
76.810822072203
 31
0.0
  0
LINE
  5
1ED
  8
0
 10
141.967086791992
 20
76.810821533203
 30
0.0
 11
141.898047403018
 21
76.811483621989
 31
0.0
  0
LINE
  5
1EE
  8
0
 10
141.898040771484
 20
76.811485290527
 30
0.0
 11
141.829019667534
 21
76.809764011657
 31
0.0
  0
LINE
  5
1EF
  8
0
 10
141.829025268555
 20
76.809761047363
 30
0.0
 11
141.760104703382
 21
76.805658452117
 31
0.0
  0
LINE
  5
1F0
  8
0
 10
141.760101318359
 20
76.805656433105
 30
0.0
 11
141.691363425905
 21
76.799177410624
 31
0.0
  0
LINE
  5
1F1
  8
0
 10
141.691360473633
 20
76.799179077148
 30
0.0
 11
141.622887170141
 21
76.790331348606
 31
0.0
  0
LINE
  5
1F2
  8
0
 10
141.622894287109
 20
76.790328979492
 30
0.0
 11
141.55476717351
 21
76.779123088893
 31
0.0
  0
LINE
  5
1F3
  8
0
 10
141.554763793945
 20
76.77912902832
 30
0.0
 11
141.487064058608
 21
76.765578329936
 31
0.0
  0
LINE
  5
1F4
  8
0
 10
141.487060546875
 20
76.765571594238
 30
0.0
 11
141.419868868853
 21
76.749692236693
 31
0.0
  0
LINE
  5
1F5
  8
0
 10
141.419876098633
 20
76.749694824219
 30
0.0
 11
141.353272551519
 21
76.731505731242
 31
0.0
  0
LINE
  5
1F6
  8
0
 10
141.353271484375
 20
76.731506347656
 30
0.0
 11
141.287335440875
 21
76.711029195535
 31
0.0
  0
LINE
  5
1F7
  8
0
 10
141.287338256836
 20
76.711029052734
 30
0.0
 11
141.222148294179
 21
76.688288244477
 31
0.0
  0
LINE
  5
1F8
  8
0
 10
141.222137451172
 20
76.688285827637
 30
0.0
 11
141.157771257468
 21
76.663308463894
 31
0.0
  0
LINE
  5
1F9
  8
0
 10
141.157775878906
 20
76.663314819336
 30
0.0
 11
141.094310160565
 21
76.636130666105
 31
0.0
  0
LINE
  5
1FA
  8
0
 10
141.094314575195
 20
76.636123657227
 30
0.0
 11
141.031824965513
 21
76.606765110376
 31
0.0
  0
LINE
  5
1FB
  8
0
 10
141.031814575195
 20
76.60676574707
 30
0.0
 11
140.97037554422
 21
76.575267793735
 31
0.0
  0
LINE
  5
1FC
  8
0
 10
140.97038269043
 20
76.575271606445
 30
0.0
 11
140.910067456216
 21
76.541671783332
 31
0.0
  0
LINE
  5
1FD
  8
0
 10
140.910064697266
 20
76.54167175293
 30
0.0
 11
140.850945138619
 21
76.506010101582
 31
0.0
  0
LINE
  5
1FE
  8
0
 10
140.850952148438
 20
76.506011962891
 30
0.0
 11
140.793098719252
 21
76.468330981973
 31
0.0
  0
LINE
  5
1FF
  8
0
 10
140.793090820312
 20
76.468330383301
 30
0.0
 11
140.736572465613
 21
76.42867497795
 31
0.0
  0
LINE
  5
200
  8
0
 10
140.736572265625
 20
76.428672790527
 30
0.0
 11
140.681456339403
 21
76.38709021884
 31
0.0
  0
LINE
  5
201
  8
0
 10
140.681457519531
 20
76.387092590332
 30
0.0
 11
140.627809704478
 21
76.343632407044
 31
0.0
  0
LINE
  5
202
  8
0
 10
140.627807617188
 20
76.343627929688
 30
0.0
 11
137.563629844712
 21
73.772477490941
 31
0.0
  0
LINE
  5
203
  8
0
 10
137.563629150391
 20
73.772476196289
 30
0.0
 11
137.511513379621
 21
73.727190193722
 31
0.0
  0
LINE
  5
204
  8
0
 10
137.511520385742
 20
73.727195739746
 30
0.0
 11
137.460998766605
 21
73.680137886085
 31
0.0
  0
LINE
  5
205
  8
0
 10
137.460998535156
 20
73.680137634277
 30
0.0
 11
137.41213127522
 21
73.631364009256
 31
0.0
  0
LINE
  5
206
  8
0
 10
137.412124633789
 20
73.631362915039
 30
0.0
 11
137.36496996909
 21
73.580931643108
 31
0.0
  0
LINE
  5
207
  8
0
 10
137.364974975586
 20
73.580932617188
 30
0.0
 11
137.31958910123
 21
73.528903798246
 31
0.0
  0
LINE
  5
208
  8
0
 10
137.319580078125
 20
73.528900146484
 30
0.0
 11
137.276017081317
 21
73.47533578426
 31
0.0
  0
LINE
  5
209
  8
0
 10
137.276031494141
 20
73.47533416748
 30
0.0
 11
137.234343289726
 21
73.420298095636
 31
0.0
  0
LINE
  5
20A
  8
0
 10
137.234329223633
 20
73.420303344727
 30
0.0
 11
137.194565492233
 21
73.363861150788
 31
0.0
  0
LINE
  5
20B
  8
0
 10
137.194564819336
 20
73.363861083984
 30
0.0
 11
137.15677294814
 21
73.306080031182
 31
0.0
  0
LINE
  5
20C
  8
0
 10
137.156784057617
 20
73.306076049805
 30
0.0
 11
137.121009083914
 21
73.24702499691
 31
0.0
  0
LINE
  5
20D
  8
0
 10
137.121002197266
 20
73.247024536133
 30
0.0
 11
137.087286754766
 21
73.186773855402
 31
0.0
  0
LINE
  5
20E
  8
0
 10
137.087295532227
 20
73.18677520752
 30
0.0
 11
137.055679800261
 21
73.125396700828
 31
0.0
  0
LINE
  5
20F
  8
0
 10
137.055679321289
 20
73.125396728516
 30
0.0
 11
137.026200976923
 21
73.062963541789
 31
0.0
  0
LINE
  5
210
  8
0
 10
137.02619934082
 20
73.062965393066
 30
0.0
 11
136.998893513954
 21
72.999551929113
 31
0.0
  0
LINE
  5
211
  8
0
 10
136.998886108398
 20
72.999549865723
 30
0.0
 11
136.973785339901
 21
72.935231695566
 31
0.0
  0
LINE
  5
212
  8
0
 10
136.973785400391
 20
72.935234069824
 30
0.0
 11
136.950919603323
 21
72.870087842643
 31
0.0
  0
LINE
  5
213
  8
0
 10
136.950927734375
 20
72.870086669922
 30
0.0
 11
136.930324158339
 21
72.804190021707
 31
0.0
  0
LINE
  5
214
  8
0
 10
136.930313110352
 20
72.804191589355
 30
0.0
 11
136.911996309019
 21
72.737623050387
 31
0.0
  0
LINE
  5
215
  8
0
 10
136.912002563477
 20
72.73762512207
 30
0.0
 11
136.895994365325
 21
72.670464023335
 31
0.0
  0
LINE
  5
216
  8
0
 10
136.89599609375
 20
72.670463562012
 30
0.0
 11
136.882315576052
 21
72.602789940659
 31
0.0
  0
LINE
  5
217
  8
0
 10
136.882308959961
 20
72.602783203125
 30
0.0
 11
136.870972426048
 21
72.534677707089
 31
0.0
  0
LINE
  5
218
  8
0
 10
136.870971679688
 20
72.534683227539
 30
0.0
 11
136.861992639521
 21
72.466227019427
 31
0.0
  0
LINE
  5
219
  8
0
 10
136.861999511719
 20
72.46622467041
 30
0.0
 11
136.855388665791
 21
72.397499330778
 31
0.0
  0
LINE
  5
21A
  8
0
 10
136.855392456055
 20
72.397499084473
 30
0.0
 11
136.851157682635
 21
72.328586514607
 31
0.0
  0
LINE
  5
21B
  8
0
 10
136.851150512695
 20
72.328590393066
 30
0.0
 11
136.849296858444
 21
72.259572717379
 31
0.0
  0
LINE
  5
21C
  8
0
 10
136.849304199219
 20
72.259567260742
 30
0.0
 11
136.84983387317
 21
72.190526728901
 31
0.0
  0
LINE
  5
21D
  8
0
 10
136.849822998047
 20
72.190528869629
 30
0.0
 11
136.852735368978
 21
72.12154775854
 31
0.0
  0
LINE
  5
21E
  8
0
 10
136.852737426758
 20
72.121551513672
 30
0.0
 11
136.858029023942
 21
72.05271202943
 31
0.0
  0
LINE
  5
21F
  8
0
 10
136.858032226562
 20
72.052711486816
 30
0.0
 11
136.865696743903
 21
71.984095666736
 31
0.0
  0
LINE
  5
220
  8
0
 10
136.865692138672
 20
71.984092712402
 30
0.0
 11
136.875720442219
 21
71.915782327252
 31
0.0
  0
LINE
  5
221
  8
0
 10
136.875732421875
 20
71.91577911377
 30
0.0
 11
136.88811256071
 21
71.847855570326
 31
0.0
  0
LINE
  5
222
  8
0
 10
136.888107299805
 20
71.847862243652
 30
0.0
 11
136.902824520281
 21
71.780406487687
 31
0.0
  0
LINE
  5
223
  8
0
 10
136.902816772461
 20
71.780403137207
 30
0.0
 11
136.91985353579
 21
71.713495557018
 31
0.0
  0
LINE
  5
224
  8
0
 10
136.919860839844
 20
71.713493347168
 30
0.0
 11
136.939196842992
 21
71.647213677784
 31
0.0
  0
LINE
  5
225
  8
0
 10
136.939193725586
 20
71.647216796875
 30
0.0
 11
136.960805925474
 21
71.58164402503
 31
0.0
  0
LINE
  5
226
  8
0
 10
136.960815429688
 20
71.581642150879
 30
0.0
 11
136.984678070647
 21
71.516854420884
 31
0.0
  0
LINE
  5
227
  8
0
 10
136.984664916992
 20
71.51685333252
 30
0.0
 11
137.010749561464
 21
71.452927853138
 31
0.0
  0
LINE
  5
228
  8
0
 10
137.010757446289
 20
71.452926635742
 30
0.0
 11
137.039033008709
 21
71.389939588175
 31
0.0
  0
LINE
  5
229
  8
0
 10
137.039031982422
 20
71.389945983887
 30
0.0
 11
137.069464766268
 21
71.327972430989
 31
0.0
  0
LINE
  5
22A
  8
0
 10
137.069458007812
 20
71.327972412109
 30
0.0
 11
137.102011745761
 21
71.267086208935
 31
0.0
  0
LINE
  5
22B
  8
0
 10
137.102020263672
 20
71.267082214355
 30
0.0
 11
137.136656160818
 21
71.207355920143
 31
0.0
  0
LINE
  5
22C
  8
0
 10
137.136657714844
 20
71.207359313965
 30
0.0
 11
137.173334494935
 21
71.148864105669
 31
0.0
  0
LINE
  5
22D
  8
0
 10
137.173324584961
 20
71.148864746094
 30
0.0
 11
137.211998539584
 21
71.091670333559
 31
0.0
  0
LINE
  5
22E
  8
0
 10
137.212005615234
 20
71.091667175293
 30
0.0
 11
137.252630655908
 21
71.035841718182
 31
0.0
  0
LINE
  5
22F
  8
0
 10
137.252624511719
 20
71.035842895508
 30
0.0
 11
137.295152224814
 21
70.981452922072
 31
0.0
  0
LINE
  5
230
  8
0
 10
137.295150756836
 20
70.981452941895
 30
0.0
 11
137.339530461273
 21
70.928563269694
 31
0.0
  0
LINE
  5
231
  8
0
 10
137.339538574219
 20
70.928558349609
 30
0.0
 11
137.385717381865
 21
70.877232008265
 31
0.0
  0
LINE
  5
232
  8
0
 10
137.385711669922
 20
70.877235412598
 30
0.0
 11
137.43363454862
 21
70.827533568681
 31
0.0
  0
LINE
  5
233
  8
0
 10
137.433639526367
 20
70.827537536621
 30
0.0
 11
137.483249365517
 21
70.779519420759
 31
0.0
  0
LINE
  5
234
  8
0
 10
137.483245849609
 20
70.779518127441
 30
0.0
 11
137.534483528228
 21
70.733240963729
 31
0.0
  0
LINE
  5
235
  8
0
 10
137.534484863281
 20
70.733238220215
 30
0.0
 11
137.587289320459
 21
70.688757158024
 31
0.0
  0
LINE
  5
236
  8
0
 10
137.587295532227
 20
70.688758850098
 30
0.0
 11
137.641603839893
 21
70.64612689835
 31
0.0
  0
LINE
  5
237
  8
0
 10
137.6416015625
 20
70.646125793457
 30
0.0
 11
137.69734900042
 21
70.605393757455
 31
0.0
  0
LINE
  5
238
  8
0
 10
137.697341918945
 20
70.605392456055
 30
0.0
 11
137.754462051842
 21
70.566608876936
 31
0.0
  0
LINE
  5
239
  8
0
 10
137.754470825195
 20
70.566612243652
 30
0.0
 11
137.812895581928
 21
70.529823340541
 31
0.0
  0
LINE
  5
23A
  8
0
 10
137.812896728516
 20
70.529823303223
 30
0.0
 11
137.872556483197
 21
70.495072918149
 31
0.0
  0
LINE
  5
23B
  8
0
 10
137.872543334961
 20
70.495071411133
 30
0.0
 11
137.933366989935
 21
70.462400956788
 31
0.0
  0
LINE
  5
23C
  8
0
 10
137.933380126953
 20
70.46240234375
 30
0.0
 11
137.99529519752
 21
70.431850754132
 31
0.0
  0
LINE
  5
23D
  8
0
 10
137.99528503418
 20
70.431846618652
 30
0.0
 11
138.058217734979
 21
70.403450302668
 31
0.0
  0
LINE
  5
23E
  8
0
 10
138.058227539062
 20
70.403450012207
 30
0.0
 11
138.122102872007
 21
70.377242810282
 31
0.0
  0
LINE
  5
23F
  8
0
 10
138.122100830078
 20
70.377243041992
 30
0.0
 11
138.186842673725
 21
70.353256185745
 31
0.0
  0
LINE
  5
240
  8
0
 10
138.18684387207
 20
70.353256225586
 30
0.0
 11
138.252375072342
 21
70.331518300606
 31
0.0
  0
LINE
  5
241
  8
0
 10
138.252365112305
 20
70.331520080566
 30
0.0
 11
138.318607574431
 21
70.31205699235
 31
0.0
  0
LINE
  5
242
  8
0
 10
138.318618774414
 20
70.312057495117
 30
0.0
 11
138.385493556001
 21
70.294892438194
 31
0.0
  0
LINE
  5
243
  8
0
 10
138.385482788086
 20
70.294891357422
 30
0.0
 11
138.452910193192
 21
70.280044787715
 31
0.0
  0
LINE
  5
244
  8
0
 10
138.452911376953
 20
70.280044555664
 30
0.0
 11
138.520811051066
 21
70.267534166111
 31
0.0
  0
LINE
  5
245
  8
0
 10
138.520812988281
 20
70.267532348633
 30
0.0
 11
138.589104014076
 21
70.257373048101
 31
0.0
  0
LINE
  5
246
  8
0
 10
138.589111328125
 20
70.257377624512
 30
0.0
 11
138.657712321896
 21
70.249581520032
 31
0.0
  0
LINE
  5
247
  8
0
 10
138.657699584961
 20
70.249580383301
 30
0.0
 11
138.726528793607
 21
70.244156765638
 31
0.0
  0
LINE
  5
248
  8
0
 10
138.726531982422
 20
70.244155883789
 30
0.0
 11
138.795507380875
 21
70.241111216371
 31
0.0
  0
LINE
  5
249
  8
0
 10
138.795516967773
 20
70.241111755371
 30
0.0
 11
138.864556356747
 21
70.240449666585
 31
0.0
  0
LINE
  5
24A
  8
0
 10
214.101959228516
 20
145.188522338867
 30
0.0
 11
214.170980332466
 21
145.190243617738
 31
0.0
  0
LINE
  5
24B
  8
0
 10
214.170974731445
 20
145.190246582031
 30
0.0
 11
214.239895296618
 21
145.194349177277
 31
0.0
  0
LINE
  5
24C
  8
0
 10
214.239898681641
 20
145.1943359375
 30
0.0
 11
214.308636574095
 21
145.200814959981
 31
0.0
  0
LINE
  5
24D
  8
0
 10
214.308639526367
 20
145.200820922852
 30
0.0
 11
214.377112829859
 21
145.209668651394
 31
0.0
  0
LINE
  5
24E
  8
0
 10
214.377105712891
 20
145.209671020508
 30
0.0
 11
214.44523282649
 21
145.220876911107
 31
0.0
  0
LINE
  5
24F
  8
0
 10
214.445236206055
 20
145.22087097168
 30
0.0
 11
214.512935941392
 21
145.234421670064
 31
0.0
  0
LINE
  5
250
  8
0
 10
214.512939453125
 20
145.234420776367
 30
0.0
 11
214.580131131147
 21
145.250300133913
 31
0.0
  0
LINE
  5
251
  8
0
 10
214.580123901367
 20
145.250305175781
 30
0.0
 11
214.646727448481
 21
145.268494268758
 31
0.0
  0
LINE
  5
252
  8
0
 10
214.646728515625
 20
145.268493652344
 30
0.0
 11
214.712664559125
 21
145.288970804465
 31
0.0
  0
LINE
  5
253
  8
0
 10
214.712661743164
 20
145.288970947266
 30
0.0
 11
214.777851705821
 21
145.311711755523
 31
0.0
  0
LINE
  5
254
  8
0
 10
214.777862548828
 20
145.311706542969
 30
0.0
 11
214.842228742532
 21
145.336683906711
 31
0.0
  0
LINE
  5
255
  8
0
 10
214.842224121094
 20
145.336685180664
 30
0.0
 11
214.905689839435
 21
145.363869333895
 31
0.0
  0
LINE
  5
256
  8
0
 10
214.905685424805
 20
145.363876342773
 30
0.0
 11
214.968175034487
 21
145.393234889624
 31
0.0
  0
LINE
  5
257
  8
0
 10
214.968185424805
 20
145.39323425293
 30
0.0
 11
215.02962445578
 21
145.424732206265
 31
0.0
  0
LINE
  5
258
  8
0
 10
215.02961730957
 20
145.424728393555
 30
0.0
 11
215.089932543784
 21
145.458328216668
 31
0.0
  0
LINE
  5
259
  8
0
 10
215.089935302734
 20
145.45832824707
 30
0.0
 11
215.149054861381
 21
145.493989898418
 31
0.0
  0
LINE
  5
25A
  8
0
 10
215.149047851562
 20
145.493988037109
 30
0.0
 11
215.206901280748
 21
145.531669018027
 31
0.0
  0
LINE
  5
25B
  8
0
 10
215.206909179688
 20
145.531677246094
 30
0.0
 11
215.263427534387
 21
145.571332651444
 31
0.0
  0
LINE
  5
25C
  8
0
 10
215.263427734375
 20
145.571334838867
 30
0.0
 11
215.318543660597
 21
145.612917410555
 31
0.0
  0
LINE
  5
25D
  8
0
 10
215.318542480469
 20
145.612915039062
 30
0.0
 11
215.372190295522
 21
145.656375222351
 31
0.0
  0
LINE
  5
25E
  8
0
 10
215.372192382812
 20
145.656372070312
 30
0.0
 11
218.436370155288
 21
148.227522509059
 31
0.0
  0
LINE
  5
25F
  8
0
 10
218.436370849609
 20
148.227523803711
 30
0.0
 11
218.488486620379
 21
148.272809806278
 31
0.0
  0
LINE
  5
260
  8
0
 10
218.488479614258
 20
148.272811889648
 30
0.0
 11
218.539001233395
 21
148.31986974331
 31
0.0
  0
LINE
  5
261
  8
0
 10
218.539001464844
 20
148.319869995117
 30
0.0
 11
218.58786872478
 21
148.368643620139
 31
0.0
  0
LINE
  5
262
  8
0
 10
218.587875366211
 20
148.368637084961
 30
0.0
 11
218.635030030909
 21
148.419068356892
 31
0.0
  0
LINE
  5
263
  8
0
 10
218.635025024414
 20
148.419067382812
 30
0.0
 11
218.68041089877
 21
148.471096201754
 31
0.0
  0
LINE
  5
264
  8
0
 10
218.680404663086
 20
148.471099853516
 30
0.0
 11
218.723967659894
 21
148.52466421574
 31
0.0
  0
LINE
  5
265
  8
0
 10
218.723968505859
 20
148.524658203125
 30
0.0
 11
218.765656710274
 21
148.57969427497
 31
0.0
  0
LINE
  5
266
  8
0
 10
218.765655517578
 20
148.579696655273
 30
0.0
 11
218.805419248978
 21
148.636138849212
 31
0.0
  0
LINE
  5
267
  8
0
 10
218.805419921875
 20
148.636138916016
 30
0.0
 11
218.84321179307
 21
148.693919968818
 31
0.0
  0
LINE
  5
268
  8
0
 10
218.843215942383
 20
148.693923950195
 30
0.0
 11
218.878990916086
 21
148.75297500309
 31
0.0
  0
LINE
  5
269
  8
0
 10
218.878997802734
 20
148.752975463867
 30
0.0
 11
218.912713245234
 21
148.813226144598
 31
0.0
  0
LINE
  5
26A
  8
0
 10
218.912704467773
 20
148.813217163086
 30
0.0
 11
218.944320199739
 21
148.874595669778
 31
0.0
  0
LINE
  5
26B
  8
0
 10
218.944320678711
 20
148.874603271484
 30
0.0
 11
218.973799023077
 21
148.937036458211
 31
0.0
  0
LINE
  5
26C
  8
0
 10
218.97380065918
 20
148.937042236328
 30
0.0
 11
219.001106486046
 21
149.000455700282
 31
0.0
  0
LINE
  5
26D
  8
0
 10
219.001113891602
 20
149.000442504883
 30
0.0
 11
219.026214660099
 21
149.064760675039
 31
0.0
  0
LINE
  5
26E
  8
0
 10
219.026214599609
 20
149.06477355957
 30
0.0
 11
219.049080396677
 21
149.129919786751
 31
0.0
  0
LINE
  5
26F
  8
0
 10
219.049072265625
 20
149.129913330078
 30
0.0
 11
219.069675841661
 21
149.195809978293
 31
0.0
  0
LINE
  5
270
  8
0
 10
219.069671630859
 20
149.195816040039
 30
0.0
 11
219.087988432192
 21
149.262384579007
 31
0.0
  0
LINE
  5
271
  8
0
 10
219.087997436523
 20
149.26237487793
 30
0.0
 11
219.104005634675
 21
149.329535976665
 31
0.0
  0
LINE
  5
272
  8
0
 10
219.10400390625
 20
149.329544067383
 30
0.0
 11
219.117684423948
 21
149.397217688735
 31
0.0
  0
LINE
  5
273
  8
0
 10
219.117691040039
 20
149.397216796875
 30
0.0
 11
219.129027573952
 21
149.465322292911
 31
0.0
  0
LINE
  5
274
  8
0
 10
219.129028320312
 20
149.465316772461
 30
0.0
 11
219.138007360479
 21
149.533772980573
 31
0.0
  0
LINE
  5
275
  8
0
 10
219.138000488281
 20
149.533767700195
 30
0.0
 11
219.14461133421
 21
149.602493039827
 31
0.0
  0
LINE
  5
276
  8
0
 10
219.144607543945
 20
149.602493286133
 30
0.0
 11
219.148842317365
 21
149.671405855999
 31
0.0
  0
LINE
  5
277
  8
0
 10
219.148849487305
 20
149.671417236328
 30
0.0
 11
219.150703141556
 21
149.740434912016
 31
0.0
  0
LINE
  5
278
  8
0
 10
219.150695800781
 20
149.740432739258
 30
0.0
 11
219.15016612683
 21
149.809473271099
 31
0.0
  0
LINE
  5
279
  8
0
 10
219.150177001953
 20
149.809463500977
 30
0.0
 11
219.147264631022
 21
149.878444612065
 31
0.0
  0
LINE
  5
27A
  8
0
 10
219.147262573242
 20
149.878448486328
 30
0.0
 11
219.141970976058
 21
149.94728797057
 31
0.0
  0
LINE
  5
27B
  8
0
 10
219.141967773438
 20
149.947296142578
 30
0.0
 11
219.134303256097
 21
150.015911962659
 31
0.0
  0
LINE
  5
27C
  8
0
 10
219.134307861328
 20
150.015914916992
 30
0.0
 11
219.124279557781
 21
150.084225302143
 31
0.0
  0
LINE
  5
27D
  8
0
 10
219.124267578125
 20
150.084213256836
 30
0.0
 11
219.11188743929
 21
150.152136800279
 31
0.0
  0
LINE
  5
27E
  8
0
 10
219.111892700195
 20
150.152145385742
 30
0.0
 11
219.097175479719
 21
150.219601141708
 31
0.0
  0
LINE
  5
27F
  8
0
 10
219.09716796875
 20
150.219604492188
 30
0.0
 11
219.080131205421
 21
150.286512072376
 31
0.0
  0
LINE
  5
280
  8
0
 10
219.080139160156
 20
150.286499023438
 30
0.0
 11
219.060803157008
 21
150.352778692822
 31
0.0
  0
LINE
  5
281
  8
0
 10
219.060806274414
 20
150.352783203125
 30
0.0
 11
219.039194074526
 21
150.41835597497
 31
0.0
  0
LINE
  5
282
  8
0
 10
219.039184570312
 20
150.418350219727
 30
0.0
 11
219.015321929353
 21
150.483137949721
 31
0.0
  0
LINE
  5
283
  8
0
 10
219.015335083008
 20
150.483139038086
 30
0.0
 11
218.989250438536
 21
150.547064517468
 31
0.0
  0
LINE
  5
284
  8
0
 10
218.989242553711
 20
150.547073364258
 30
0.0
 11
218.960966991291
 21
150.610060411825
 31
0.0
  0
LINE
  5
285
  8
0
 10
218.960968017578
 20
150.610061645508
 30
0.0
 11
218.930535233732
 21
150.672035198406
 31
0.0
  0
LINE
  5
286
  8
0
 10
218.930541992188
 20
150.672027587891
 30
0.0
 11
218.897988254239
 21
150.732913791065
 31
0.0
  0
LINE
  5
287
  8
0
 10
218.897979736328
 20
150.73291015625
 30
0.0
 11
218.863343839182
 21
150.792636450462
 31
0.0
  0
LINE
  5
288
  8
0
 10
218.863342285156
 20
150.79264831543
 30
0.0
 11
218.826665505065
 21
150.851143523726
 31
0.0
  0
LINE
  5
289
  8
0
 10
218.826675415039
 20
150.851135253906
 30
0.0
 11
218.788001460415
 21
150.908329666441
 31
0.0
  0
LINE
  5
28A
  8
0
 10
218.787994384766
 20
150.908340454102
 30
0.0
 11
218.747369344092
 21
150.964165911213
 31
0.0
  0
LINE
  5
28B
  8
0
 10
218.747375488281
 20
150.964157104492
 30
0.0
 11
218.704847775186
 21
151.018547077928
 31
0.0
  0
LINE
  5
28C
  8
0
 10
218.704849243164
 20
151.0185546875
 30
0.0
 11
218.660469538727
 21
151.071444359701
 31
0.0
  0
LINE
  5
28D
  8
0
 10
218.660461425781
 20
151.071441650391
 30
0.0
 11
218.614282618135
 21
151.122767991735
 31
0.0
  0
LINE
  5
28E
  8
0
 10
218.614288330078
 20
151.122756958008
 30
0.0
 11
218.56636545138
 21
151.172458801925
 31
0.0
  0
LINE
  5
28F
  8
0
 10
218.566360473633
 20
151.172470092773
 30
0.0
 11
218.516750634483
 21
151.220488208636
 31
0.0
  0
LINE
  5
290
  8
0
 10
218.516754150391
 20
151.220489501953
 30
0.0
 11
218.465516471772
 21
151.266766665665
 31
0.0
  0
LINE
  5
291
  8
0
 10
218.465515136719
 20
151.266754150391
 30
0.0
 11
218.412710679541
 21
151.311235212582
 31
0.0
  0
LINE
  5
292
  8
0
 10
218.412704467773
 20
151.311248779297
 30
0.0
 11
218.358396160107
 21
151.353880731044
 31
0.0
  0
LINE
  5
293
  8
0
 10
218.3583984375
 20
151.353881835938
 30
0.0
 11
218.30265099958
 21
151.394613871939
 31
0.0
  0
LINE
  5
294
  8
0
 10
218.302658081055
 20
151.394607543945
 30
0.0
 11
218.245537948158
 21
151.433391123064
 31
0.0
  0
LINE
  5
295
  8
0
 10
218.245529174805
 20
151.433395385742
 30
0.0
 11
218.187104418072
 21
151.470184288854
 31
0.0
  0
LINE
  5
296
  8
0
 10
218.187103271484
 20
151.470184326172
 30
0.0
 11
218.127443516803
 21
151.504934711245
 31
0.0
  0
LINE
  5
297
  8
0
 10
218.12744140625
 20
151.504928588867
 30
0.0
 11
218.066617751276
 21
151.537599043212
 31
0.0
  0
LINE
  5
298
  8
0
 10
218.066619873047
 20
151.53759765625
 30
0.0
 11
218.00470480248
 21
151.568149245868
 31
0.0
  0
LINE
  5
299
  8
0
 10
218.00471496582
 20
151.568145751953
 30
0.0
 11
217.941782265021
 21
151.596542067938
 31
0.0
  0
LINE
  5
29A
  8
0
 10
217.941772460938
 20
151.596542358398
 30
0.0
 11
217.877897127993
 21
151.622749560323
 31
0.0
  0
LINE
  5
29B
  8
0
 10
217.877899169922
 20
151.622756958008
 30
0.0
 11
217.813157326275
 21
151.646743814255
 31
0.0
  0
LINE
  5
29C
  8
0
 10
217.81315612793
 20
151.646743774414
 30
0.0
 11
217.747624927658
 21
151.668481699394
 31
0.0
  0
LINE
  5
29D
  8
0
 10
217.747634887695
 20
151.668472290039
 30
0.0
 11
217.681392425569
 21
151.687935378256
 31
0.0
  0
LINE
  5
29E
  8
0
 10
217.681381225586
 20
151.687942504883
 30
0.0
 11
217.614506443999
 21
151.705107561806
 31
0.0
  0
LINE
  5
29F
  8
0
 10
217.614517211914
 20
151.705108642578
 30
0.0
 11
217.547089806808
 21
151.719955212285
 31
0.0
  0
LINE
  5
2A0
  8
0
 10
217.547088623047
 20
151.719955444336
 30
0.0
 11
217.479188948934
 21
151.732465833889
 31
0.0
  0
LINE
  5
2A1
  8
0
 10
217.479187011719
 20
151.732467651367
 30
0.0
 11
217.410895985924
 21
151.742626951899
 31
0.0
  0
LINE
  5
2A2
  8
0
 10
217.410888671875
 20
151.742630004883
 30
0.0
 11
217.342287678104
 21
151.750426109362
 31
0.0
  0
LINE
  5
2A3
  8
0
 10
217.34228515625
 20
151.750427246094
 30
0.0
 11
217.273455947604
 21
151.755850863756
 31
0.0
  0
LINE
  5
2A4
  8
0
 10
217.273468017578
 20
151.755844116211
 30
0.0
 11
217.204492619125
 21
151.758888783629
 31
0.0
  0
LINE
  5
2A5
  8
0
 10
217.204483032227
 20
151.758895874023
 30
0.0
 11
217.135443643253
 21
151.759557962809
 31
0.0
  0
LINE
  5
2A6
  8
0
 10
217.135452270508
 20
151.759552001953
 30
0.0
 11
217.066431166558
 21
151.757830723083
 31
0.0
  0
LINE
  5
2A7
  8
0
 10
217.066421508789
 20
151.757827758789
 30
0.0
 11
216.997500943617
 21
151.753725163543
 31
0.0
  0
LINE
  5
2A8
  8
0
 10
216.997512817383
 20
151.753723144531
 30
0.0
 11
216.928774924928
 21
151.74724412205
 31
0.0
  0
LINE
  5
2A9
  8
0
 10
216.928771972656
 20
151.747253417969
 30
0.0
 11
216.860298669165
 21
151.738405689426
 31
0.0
  0
LINE
  5
2AA
  8
0
 10
216.860290527344
 20
151.738403320312
 30
0.0
 11
216.792163413745
 21
151.727197429713
 31
0.0
  0
LINE
  5
2AB
  8
0
 10
216.792175292969
 20
151.727188110352
 30
0.0
 11
216.724475557631
 21
151.713637411968
 31
0.0
  0
LINE
  5
2AC
  8
0
 10
216.724472045898
 20
151.713638305664
 30
0.0
 11
216.657280367877
 21
151.697758948119
 31
0.0
  0
LINE
  5
2AD
  8
0
 10
216.657272338867
 20
151.697769165039
 30
0.0
 11
216.590668791753
 21
151.679580072063
 31
0.0
  0
LINE
  5
2AE
  8
0
 10
216.590667724609
 20
151.679580688477
 30
0.0
 11
216.524731681109
 21
151.659103536355
 31
0.0
  0
LINE
  5
2AF
  8
0
 10
216.52473449707
 20
151.659103393555
 30
0.0
 11
216.459544534413
 21
151.636362585297
 31
0.0
  0
LINE
  5
2B0
  8
0
 10
216.459548950195
 20
151.636352539062
 30
0.0
 11
216.395182756492
 21
151.61137517532
 31
0.0
  0
LINE
  5
2B1
  8
0
 10
216.39518737793
 20
151.611373901367
 30
0.0
 11
216.331721659589
 21
151.584189748136
 31
0.0
  0
LINE
  5
2B2
  8
0
 10
216.33171081543
 20
151.584197998047
 30
0.0
 11
216.269221205747
 21
151.554839451196
 31
0.0
  0
LINE
  5
2B3
  8
0
 10
216.269226074219
 20
151.554840087891
 30
0.0
 11
216.207787043244
 21
151.523342134556
 31
0.0
  0
LINE
  5
2B4
  8
0
 10
216.207778930664
 20
151.523345947266
 30
0.0
 11
216.147463696451
 21
151.489746124152
 31
0.0
  0
LINE
  5
2B5
  8
0
 10
216.147476196289
 20
151.48974609375
 30
0.0
 11
216.088356637642
 21
151.454084442403
 31
0.0
  0
LINE
  5
2B6
  8
0
 10
216.088348388672
 20
151.454071044922
 30
0.0
 11
216.030494959486
 21
151.416390064004
 31
0.0
  0
LINE
  5
2B7
  8
0
 10
216.030502319336
 20
151.416397094727
 30
0.0
 11
215.973983964637
 21
151.376741689376
 31
0.0
  0
LINE
  5
2B8
  8
0
 10
215.973983764648
 20
151.376739501953
 30
0.0
 11
215.918867838427
 21
151.335156930265
 31
0.0
  0
LINE
  5
2B9
  8
0
 10
215.918869018555
 20
151.335159301758
 30
0.0
 11
215.865221203502
 21
151.291699118469
 31
0.0
  0
LINE
  5
2BA
  8
0
 10
215.865219116211
 20
151.291702270508
 30
0.0
 11
212.801041343735
 21
148.720551831762
 31
0.0
  0
LINE
  5
2BB
  8
0
 10
212.801040649414
 20
148.720550537109
 30
0.0
 11
212.748924878644
 21
148.675264534542
 31
0.0
  0
LINE
  5
2BC
  8
0
 10
212.748916625977
 20
148.675262451172
 30
0.0
 11
212.698395006839
 21
148.628204597511
 31
0.0
  0
LINE
  5
2BD
  8
0
 10
212.698394775391
 20
148.628204345703
 30
0.0
 11
212.649527515454
 21
148.579430720682
 31
0.0
  0
LINE
  5
2BE
  8
0
 10
212.649536132812
 20
148.579437255859
 30
0.0
 11
212.602381468114
 21
148.529005983928
 31
0.0
  0
LINE
  5
2BF
  8
0
 10
212.602386474609
 20
148.528991699219
 30
0.0
 11
212.557000600254
 21
148.476962880278
 31
0.0
  0
LINE
  5
2C0
  8
0
 10
212.556991577148
 20
148.476974487305
 30
0.0
 11
212.51342858034
 21
148.42341012508
 31
0.0
  0
LINE
  5
2C1
  8
0
 10
212.513427734375
 20
148.423400878906
 30
0.0
 11
212.47173952996
 21
148.368364807061
 31
0.0
  0
LINE
  5
2C2
  8
0
 10
212.471740722656
 20
148.368362426758
 30
0.0
 11
212.431976991256
 21
148.31192023282
 31
0.0
  0
LINE
  5
2C3
  8
0
 10
212.431976318359
 20
148.311920166016
 30
0.0
 11
212.394184447164
 21
148.254139113213
 31
0.0
  0
LINE
  5
2C4
  8
0
 10
212.394180297852
 20
148.254150390625
 30
0.0
 11
212.358405324148
 21
148.19509933773
 31
0.0
  0
LINE
  5
2C5
  8
0
 10
212.358413696289
 20
148.195098876953
 30
0.0
 11
212.32469825379
 21
148.134848196222
 31
0.0
  0
LINE
  5
2C6
  8
0
 10
212.324691772461
 20
148.134841918945
 30
0.0
 11
212.293076040496
 21
148.073463412253
 31
0.0
  0
LINE
  5
2C7
  8
0
 10
212.293075561523
 20
148.073471069336
 30
0.0
 11
212.263597217158
 21
148.011037882609
 31
0.0
  0
LINE
  5
2C8
  8
0
 10
212.263595581055
 20
148.011032104492
 30
0.0
 11
212.236289754188
 21
147.947618640539
 31
0.0
  0
LINE
  5
2C9
  8
0
 10
212.236297607422
 20
147.947616577148
 30
0.0
 11
212.211196838925
 21
147.883298406992
 31
0.0
  0
LINE
  5
2CA
  8
0
 10
212.211196899414
 20
147.88330078125
 30
0.0
 11
212.188331102346
 21
147.818154554069
 31
0.0
  0
LINE
  5
2CB
  8
0
 10
212.188323974609
 20
147.818161010742
 30
0.0
 11
212.167720398574
 21
147.752264362527
 31
0.0
  0
LINE
  5
2CC
  8
0
 10
212.167724609375
 20
147.752258300781
 30
0.0
 11
212.149407808042
 21
147.685689761813
 31
0.0
  0
LINE
  5
2CD
  8
0
 10
212.1494140625
 20
147.685684204102
 30
0.0
 11
212.133405864348
 21
147.618523105366
 31
0.0
  0
LINE
  5
2CE
  8
0
 10
212.133407592773
 20
147.618530273438
 30
0.0
 11
212.119727075075
 21
147.550856652085
 31
0.0
  0
LINE
  5
2CF
  8
0
 10
212.119720458984
 20
147.550857543945
 30
0.0
 11
212.108383925071
 21
147.48275204791
 31
0.0
  0
LINE
  5
2D0
  8
0
 10
212.108383178711
 20
147.482757568359
 30
0.0
 11
212.099404138544
 21
147.414301360247
 31
0.0
  0
LINE
  5
2D1
  8
0
 10
212.099411010742
 20
147.414291381836
 30
0.0
 11
212.092800164814
 21
147.345566042204
 31
0.0
  0
LINE
  5
2D2
  8
0
 10
212.092788696289
 20
147.345565795898
 30
0.0
 11
212.088553922869
 21
147.276653226033
 31
0.0
  0
LINE
  5
2D3
  8
0
 10
212.088562011719
 20
147.276657104492
 30
0.0
 11
212.086708357467
 21
147.207639428804
 31
0.0
  0
LINE
  5
2D4
  8
0
 10
212.086700439453
 20
147.207641601562
 30
0.0
 11
212.087230113404
 21
147.138601069721
 31
0.0
  0
LINE
  5
2D5
  8
0
 10
212.08723449707
 20
147.138595581055
 30
0.0
 11
212.090146868002
 21
147.069614469966
 31
0.0
  0
LINE
  5
2D6
  8
0
 10
212.090148925781
 20
147.069610595703
 30
0.0
 11
212.095440522966
 21
147.000771111461
 31
0.0
  0
LINE
  5
2D7
  8
0
 10
212.095443725586
 20
147.000778198242
 30
0.0
 11
212.103108242927
 21
146.932162378161
 31
0.0
  0
LINE
  5
2D8
  8
0
 10
212.103103637695
 20
146.932159423828
 30
0.0
 11
212.113131941243
 21
146.863849038678
 31
0.0
  0
LINE
  5
2D9
  8
0
 10
212.113128662109
 20
146.863845825195
 30
0.0
 11
212.125508800944
 21
146.795922281752
 31
0.0
  0
LINE
  5
2DA
  8
0
 10
212.125518798828
 20
146.795928955078
 30
0.0
 11
212.140236019305
 21
146.728473199113
 31
0.0
  0
LINE
  5
2DB
  8
0
 10
212.140228271484
 20
146.728469848633
 30
0.0
 11
212.157265034814
 21
146.661562268444
 31
0.0
  0
LINE
  5
2DC
  8
0
 10
212.157272338867
 20
146.661560058594
 30
0.0
 11
212.176608342016
 21
146.59528038921
 31
0.0
  0
LINE
  5
2DD
  8
0
 10
212.176605224609
 20
146.595291137695
 30
0.0
 11
212.198217424497
 21
146.52971836585
 31
0.0
  0
LINE
  5
2DE
  8
0
 10
212.198211669922
 20
146.529708862305
 30
0.0
 11
212.222074310882
 21
146.46492113231
 31
0.0
  0
LINE
  5
2DF
  8
0
 10
212.222076416016
 20
146.464920043945
 30
0.0
 11
212.248161060487
 21
146.400994564563
 31
0.0
  0
LINE
  5
2E0
  8
0
 10
212.248168945312
 20
146.401000976562
 30
0.0
 11
212.276444507732
 21
146.338013928995
 31
0.0
  0
LINE
  5
2E1
  8
0
 10
212.276443481445
 20
146.338012695312
 30
0.0
 11
212.306876265291
 21
146.276039142414
 31
0.0
  0
LINE
  5
2E2
  8
0
 10
212.306869506836
 20
146.276031494141
 30
0.0
 11
212.339423244785
 21
146.215145290966
 31
0.0
  0
LINE
  5
2E3
  8
0
 10
212.339416503906
 20
146.215148925781
 30
0.0
 11
212.374052401053
 21
146.155422631569
 31
0.0
  0
LINE
  5
2E4
  8
0
 10
212.374053955078
 20
146.155426025391
 30
0.0
 11
212.410730735169
 21
146.096930817095
 31
0.0
  0
LINE
  5
2E5
  8
0
 10
212.410736083984
 20
146.096923828125
 30
0.0
 11
212.449410038608
 21
146.03972941559
 31
0.0
  0
LINE
  5
2E6
  8
0
 10
212.449417114258
 20
146.039733886719
 30
0.0
 11
212.490042154931
 21
145.983908429607
 31
0.0
  0
LINE
  5
2E7
  8
0
 10
212.490036010742
 20
145.983917236328
 30
0.0
 11
212.532563723837
 21
145.929527262892
 31
0.0
  0
LINE
  5
2E8
  8
0
 10
212.532562255859
 20
145.92951965332
 30
0.0
 11
212.576941960296
 21
145.876629981119
 31
0.0
  0
LINE
  5
2E9
  8
0
 10
212.576950073242
 20
145.87663269043
 30
0.0
 11
212.623128880889
 21
145.825306349085
 31
0.0
  0
LINE
  5
2EA
  8
0
 10
212.623123168945
 20
145.825302124023
 30
0.0
 11
212.671046047644
 21
145.775600280107
 31
0.0
  0
LINE
  5
2EB
  8
0
 10
212.671051025391
 20
145.775604248047
 30
0.0
 11
212.72066086454
 21
145.727586132185
 31
0.0
  0
LINE
  5
2EC
  8
0
 10
212.720657348633
 20
145.727584838867
 30
0.0
 11
212.771895027251
 21
145.681307675155
 31
0.0
  0
LINE
  5
2ED
  8
0
 10
212.771896362305
 20
145.681304931641
 30
0.0
 11
212.824700819482
 21
145.63682386945
 31
0.0
  0
LINE
  5
2EE
  8
0
 10
212.824691772461
 20
145.636825561523
 30
0.0
 11
212.879000080128
 21
145.594193609776
 31
0.0
  0
LINE
  5
2EF
  8
0
 10
212.878997802734
 20
145.594192504883
 30
0.0
 11
212.934745240654
 21
145.553460468881
 31
0.0
  0
LINE
  5
2F0
  8
0
 10
212.934753417969
 20
145.553466796875
 30
0.0
 11
212.991873550866
 21
145.514683217756
 31
0.0
  0
LINE
  5
2F1
  8
0
 10
212.99186706543
 20
145.514678955078
 30
0.0
 11
213.050291822163
 21
145.477890051967
 31
0.0
  0
LINE
  5
2F2
  8
0
 10
213.05029296875
 20
145.477890014648
 30
0.0
 11
213.109952723432
 21
145.443139629575
 31
0.0
  0
LINE
  5
2F3
  8
0
 10
213.109954833984
 20
145.443145751953
 30
0.0
 11
213.170778488958
 21
145.410475297609
 31
0.0
  0
LINE
  5
2F4
  8
0
 10
213.170776367188
 20
145.410461425781
 30
0.0
 11
213.232691437754
 21
145.379909836163
 31
0.0
  0
LINE
  5
2F5
  8
0
 10
213.232696533203
 20
145.379913330078
 30
0.0
 11
213.295629234003
 21
145.351517014094
 31
0.0
  0
LINE
  5
2F6
  8
0
 10
213.295623779297
 20
145.351516723633
 30
0.0
 11
213.359499112241
 21
145.325309521708
 31
0.0
  0
LINE
  5
2F7
  8
0
 10
213.359497070312
 20
145.325317382812
 30
0.0
 11
213.424238913959
 21
145.301330526565
 31
0.0
  0
LINE
  5
2F8
  8
0
 10
213.424240112305
 20
145.301330566406
 30
0.0
 11
213.489771312576
 21
145.279592641426
 31
0.0
  0
LINE
  5
2F9
  8
0
 10
213.489776611328
 20
145.279586791992
 30
0.0
 11
213.556019073454
 21
145.260123703776
 31
0.0
  0
LINE
  5
2FA
  8
0
 10
213.556015014648
 20
145.260131835938
 30
0.0
 11
213.622889796235
 21
145.242966779014
 31
0.0
  0
LINE
  5
2FB
  8
0
 10
213.622894287109
 20
145.242965698242
 30
0.0
 11
213.690321692216
 21
145.228119128535
 31
0.0
  0
LINE
  5
2FC
  8
0
 10
213.690322875977
 20
145.228118896484
 30
0.0
 11
213.75822255009
 21
145.215608506931
 31
0.0
  0
LINE
  5
2FD
  8
0
 10
213.758224487305
 20
145.215606689453
 30
0.0
 11
213.8265155131
 21
145.205447388922
 31
0.0
  0
LINE
  5
2FE
  8
0
 10
213.826507568359
 20
145.205444335938
 30
0.0
 11
213.89510856213
 21
145.197648231458
 31
0.0
  0
LINE
  5
2FF
  8
0
 10
213.895111083984
 20
145.197647094727
 30
0.0
 11
213.963940292631
 21
145.192223477064
 31
0.0
  0
LINE
  5
300
  8
0
 10
213.963943481445
 20
145.192230224609
 30
0.0
 11
214.032918879898
 21
145.189185557191
 31
0.0
  0
LINE
  5
301
  8
0
 10
214.032913208008
 20
145.189178466797
 30
0.0
 11
214.101952596982
 21
145.188516378011
 31
0.0
  0
LINE
  5
302
  8
0
 10
70.101959228516
 20
152.188522338867
 30
0.0
 11
70.170980332466
 21
152.190243617738
 31
0.0
  0
LINE
  5
303
  8
0
 10
70.170974731445
 20
152.190246582031
 30
0.0
 11
70.239895296618
 21
152.194349177277
 31
0.0
  0
LINE
  5
304
  8
0
 10
70.239898681641
 20
152.1943359375
 30
0.0
 11
70.308636574095
 21
152.200814959981
 31
0.0
  0
LINE
  5
305
  8
0
 10
70.308639526367
 20
152.200820922852
 30
0.0
 11
70.377112829859
 21
152.209668651394
 31
0.0
  0
LINE
  5
306
  8
0
 10
70.377113342285
 20
152.209671020508
 30
0.0
 11
70.445240455884
 21
152.220876911107
 31
0.0
  0
LINE
  5
307
  8
0
 10
70.445236206055
 20
152.22087097168
 30
0.0
 11
70.512935941392
 21
152.234421670064
 31
0.0
  0
LINE
  5
308
  8
0
 10
70.512939453125
 20
152.234420776367
 30
0.0
 11
70.580131131147
 21
152.250300133913
 31
0.0
  0
LINE
  5
309
  8
0
 10
70.580131530762
 20
152.250305175781
 30
0.0
 11
70.646735077875
 21
152.268494268758
 31
0.0
  0
LINE
  5
30A
  8
0
 10
70.646728515625
 20
152.268493652344
 30
0.0
 11
70.712664559125
 21
152.288970804465
 31
0.0
  0
LINE
  5
30B
  8
0
 10
70.712669372559
 20
152.288970947266
 30
0.0
 11
70.777859335216
 21
152.311711755523
 31
0.0
  0
LINE
  5
30C
  8
0
 10
70.777854919434
 20
152.311706542969
 30
0.0
 11
70.842221113137
 21
152.336683906711
 31
0.0
  0
LINE
  5
30D
  8
0
 10
70.842224121094
 20
152.336685180664
 30
0.0
 11
70.905689839435
 21
152.363869333895
 31
0.0
  0
LINE
  5
30E
  8
0
 10
70.905693054199
 20
152.363876342773
 30
0.0
 11
70.968182663882
 21
152.393234889624
 31
0.0
  0
LINE
  5
30F
  8
0
 10
70.96817779541
 20
152.39323425293
 30
0.0
 11
71.029616826385
 21
152.424732206265
 31
0.0
  0
LINE
  5
310
  8
0
 10
71.02961730957
 20
152.424728393555
 30
0.0
 11
71.089932543783
 21
152.458328216668
 31
0.0
  0
LINE
  5
311
  8
0
 10
71.089935302734
 20
152.45832824707
 30
0.0
 11
71.149054861381
 21
152.493989898418
 31
0.0
  0
LINE
  5
312
  8
0
 10
71.149055480957
 20
152.493988037109
 30
0.0
 11
71.206908910143
 21
152.531669018027
 31
0.0
  0
LINE
  5
313
  8
0
 10
71.206909179688
 20
152.531677246094
 30
0.0
 11
71.263427534387
 21
152.571332651444
 31
0.0
  0
LINE
  5
314
  8
0
 10
71.263427734375
 20
152.571334838867
 30
0.0
 11
71.318543660597
 21
152.612917410555
 31
0.0
  0
LINE
  5
315
  8
0
 10
71.318542480469
 20
152.612915039062
 30
0.0
 11
71.372190295522
 21
152.656375222351
 31
0.0
  0
LINE
  5
316
  8
0
 10
71.372192382812
 20
152.656372070312
 30
0.0
 11
74.436370155288
 21
155.227522509059
 31
0.0
  0
LINE
  5
317
  8
0
 10
74.436363220215
 20
155.227523803711
 30
0.0
 11
74.488478990984
 21
155.272809806278
 31
0.0
  0
LINE
  5
318
  8
0
 10
74.488479614258
 20
155.272811889648
 30
0.0
 11
74.539001233395
 21
155.31986974331
 31
0.0
  0
LINE
  5
319
  8
0
 10
74.539001464844
 20
155.319869995117
 30
0.0
 11
74.58786872478
 21
155.368643620139
 31
0.0
  0
LINE
  5
31A
  8
0
 10
74.587867736816
 20
155.368637084961
 30
0.0
 11
74.635022401515
 21
155.419068356892
 31
0.0
  0
LINE
  5
31B
  8
0
 10
74.635025024414
 20
155.419067382812
 30
0.0
 11
74.68041089877
 21
155.471096201754
 31
0.0
  0
LINE
  5
31C
  8
0
 10
74.68041229248
 20
155.471099853516
 30
0.0
 11
74.723975289289
 21
155.52466421574
 31
0.0
  0
LINE
  5
31D
  8
0
 10
74.723976135254
 20
155.524658203125
 30
0.0
 11
74.765664339669
 21
155.57969427497
 31
0.0
  0
LINE
  5
31E
  8
0
 10
74.765663146973
 20
155.579696655273
 30
0.0
 11
74.805426878373
 21
155.636138849212
 31
0.0
  0
LINE
  5
31F
  8
0
 10
74.80542755127
 20
155.636138916016
 30
0.0
 11
74.843219422465
 21
155.693919968818
 31
0.0
  0
LINE
  5
320
  8
0
 10
74.843215942383
 20
155.693923950195
 30
0.0
 11
74.878990916086
 21
155.75297500309
 31
0.0
  0
LINE
  5
321
  8
0
 10
74.87899017334
 20
155.752975463867
 30
0.0
 11
74.912705615839
 21
155.813226144598
 31
0.0
  0
LINE
  5
322
  8
0
 10
74.912712097168
 20
155.813217163086
 30
0.0
 11
74.944327829133
 21
155.874595669778
 31
0.0
  0
LINE
  5
323
  8
0
 10
74.944328308105
 20
155.874603271484
 30
0.0
 11
74.973806652471
 21
155.937036458211
 31
0.0
  0
LINE
  5
324
  8
0
 10
74.97380065918
 20
155.937042236328
 30
0.0
 11
75.001106486046
 21
156.000455700282
 31
0.0
  0
LINE
  5
325
  8
0
 10
75.001106262207
 20
156.000442504883
 30
0.0
 11
75.026207030704
 21
156.064760675039
 31
0.0
  0
LINE
  5
326
  8
0
 10
75.026206970215
 20
156.06477355957
 30
0.0
 11
75.049072767283
 21
156.129919786751
 31
0.0
  0
LINE
  5
327
  8
0
 10
75.049072265625
 20
156.129913330078
 30
0.0
 11
75.069675841661
 21
156.195809978293
 31
0.0
  0
LINE
  5
328
  8
0
 10
75.069679260254
 20
156.195816040039
 30
0.0
 11
75.087996061587
 21
156.262384579007
 31
0.0
  0
LINE
  5
329
  8
0
 10
75.087997436523
 20
156.26237487793
 30
0.0
 11
75.104005634675
 21
156.329535976665
 31
0.0
  0
LINE
  5
32A
  8
0
 10
75.10400390625
 20
156.329544067383
 30
0.0
 11
75.117684423948
 21
156.397217688735
 31
0.0
  0
LINE
  5
32B
  8
0
 10
75.117683410645
 20
156.397216796875
 30
0.0
 11
75.129019944558
 21
156.465322292911
 31
0.0
  0
LINE
  5
32C
  8
0
 10
75.129020690918
 20
156.465316772461
 30
0.0
 11
75.137999731085
 21
156.533772980573
 31
0.0
  0
LINE
  5
32D
  8
0
 10
75.138000488281
 20
156.533767700195
 30
0.0
 11
75.144611334209
 21
156.602493039827
 31
0.0
  0
LINE
  5
32E
  8
0
 10
75.144607543945
 20
156.602493286133
 30
0.0
 11
75.148842317365
 21
156.671405855999
 31
0.0
  0
LINE
  5
32F
  8
0
 10
75.14884185791
 20
156.671417236328
 30
0.0
 11
75.150695512162
 21
156.740434912016
 31
0.0
  0
LINE
  5
330
  8
0
 10
75.150695800781
 20
156.740432739258
 30
0.0
 11
75.15016612683
 21
156.809473271099
 31
0.0
  0
LINE
  5
331
  8
0
 10
75.150169372559
 20
156.809463500977
 30
0.0
 11
75.147257001627
 21
156.878444612065
 31
0.0
  0
LINE
  5
332
  8
0
 10
75.147254943848
 20
156.878448486328
 30
0.0
 11
75.141963346663
 21
156.94728797057
 31
0.0
  0
LINE
  5
333
  8
0
 10
75.141967773438
 20
156.947296142578
 30
0.0
 11
75.134303256097
 21
157.015911962659
 31
0.0
  0
LINE
  5
334
  8
0
 10
75.134300231934
 20
157.015914916992
 30
0.0
 11
75.124271928386
 21
157.084225302143
 31
0.0
  0
LINE
  5
335
  8
0
 10
75.12427520752
 20
157.084213256836
 30
0.0
 11
75.111895068685
 21
157.152136800279
 31
0.0
  0
LINE
  5
336
  8
0
 10
75.111892700195
 20
157.152145385742
 30
0.0
 11
75.097175479719
 21
157.219601141708
 31
0.0
  0
LINE
  5
337
  8
0
 10
75.097175598145
 20
157.219604492188
 30
0.0
 11
75.080138834815
 21
157.286512072376
 31
0.0
  0
LINE
  5
338
  8
0
 10
75.080139160156
 20
157.286499023438
 30
0.0
 11
75.060803157008
 21
157.352778692822
 31
0.0
  0
LINE
  5
339
  8
0
 10
75.060806274414
 20
157.352783203125
 30
0.0
 11
75.039194074526
 21
157.41835597497
 31
0.0
  0
LINE
  5
33A
  8
0
 10
75.039192199707
 20
157.418350219727
 30
0.0
 11
75.015329558747
 21
157.483137949721
 31
0.0
  0
LINE
  5
33B
  8
0
 10
75.015327453613
 20
157.483139038086
 30
0.0
 11
74.989242809141
 21
157.547064517468
 31
0.0
  0
LINE
  5
33C
  8
0
 10
74.989242553711
 20
157.547073364258
 30
0.0
 11
74.960966991291
 21
157.610060411825
 31
0.0
  0
LINE
  5
33D
  8
0
 10
74.960968017578
 20
157.610061645508
 30
0.0
 11
74.930535233732
 21
157.672035198406
 31
0.0
  0
LINE
  5
33E
  8
0
 10
74.930534362793
 20
157.672027587891
 30
0.0
 11
74.897980624844
 21
157.732913791065
 31
0.0
  0
LINE
  5
33F
  8
0
 10
74.897979736328
 20
157.73291015625
 30
0.0
 11
74.863343839182
 21
157.792636450462
 31
0.0
  0
LINE
  5
340
  8
0
 10
74.863342285156
 20
157.79264831543
 30
0.0
 11
74.826665505065
 21
157.851143523726
 31
0.0
  0
LINE
  5
341
  8
0
 10
74.826667785645
 20
157.851135253906
 30
0.0
 11
74.787993831021
 21
157.908329666441
 31
0.0
  0
LINE
  5
342
  8
0
 10
74.787994384766
 20
157.908340454102
 30
0.0
 11
74.747369344092
 21
157.964165911213
 31
0.0
  0
LINE
  5
343
  8
0
 10
74.747367858887
 20
157.964157104492
 30
0.0
 11
74.704840145792
 21
158.018547077928
 31
0.0
  0
LINE
  5
344
  8
0
 10
74.70484161377
 20
158.0185546875
 30
0.0
 11
74.660461909333
 21
158.071444359701
 31
0.0
  0
LINE
  5
345
  8
0
 10
74.660461425781
 20
158.071441650391
 30
0.0
 11
74.614282618135
 21
158.122767991735
 31
0.0
  0
LINE
  5
346
  8
0
 10
74.614280700684
 20
158.122756958008
 30
0.0
 11
74.566357821985
 21
158.172458801924
 31
0.0
  0
LINE
  5
347
  8
0
 10
74.566360473633
 20
158.172470092773
 30
0.0
 11
74.516750634483
 21
158.220488208636
 31
0.0
  0
LINE
  5
348
  8
0
 10
74.516754150391
 20
158.220489501953
 30
0.0
 11
74.465516471772
 21
158.266766665665
 31
0.0
  0
LINE
  5
349
  8
0
 10
74.465515136719
 20
158.266754150391
 30
0.0
 11
74.412710679541
 21
158.311235212582
 31
0.0
  0
LINE
  5
34A
  8
0
 10
74.412712097168
 20
158.311248779297
 30
0.0
 11
74.358403789501
 21
158.353880731044
 31
0.0
  0
LINE
  5
34B
  8
0
 10
74.3583984375
 20
158.353881835938
 30
0.0
 11
74.30265099958
 21
158.394613871939
 31
0.0
  0
LINE
  5
34C
  8
0
 10
74.30265045166
 20
158.394607543945
 30
0.0
 11
74.245530318763
 21
158.433391123064
 31
0.0
  0
LINE
  5
34D
  8
0
 10
74.245529174805
 20
158.433395385742
 30
0.0
 11
74.187104418072
 21
158.470184288854
 31
0.0
  0
LINE
  5
34E
  8
0
 10
74.187110900879
 20
158.470184326172
 30
0.0
 11
74.127451146197
 21
158.504934711245
 31
0.0
  0
LINE
  5
34F
  8
0
 10
74.127449035645
 20
158.504928588867
 30
0.0
 11
74.066625380671
 21
158.537599043212
 31
0.0
  0
LINE
  5
350
  8
0
 10
74.066627502441
 20
158.53759765625
 30
0.0
 11
74.004712431875
 21
158.568149245868
 31
0.0
  0
LINE
  5
351
  8
0
 10
74.004707336426
 20
158.568145751953
 30
0.0
 11
73.941774635626
 21
158.596542067938
 31
0.0
  0
LINE
  5
352
  8
0
 10
73.941780090332
 20
158.596542358398
 30
0.0
 11
73.877904757388
 21
158.622749560323
 31
0.0
  0
LINE
  5
353
  8
0
 10
73.877899169922
 20
158.622756958008
 30
0.0
 11
73.813157326275
 21
158.646743814255
 31
0.0
  0
LINE
  5
354
  8
0
 10
73.81315612793
 20
158.646743774414
 30
0.0
 11
73.747624927658
 21
158.668481699394
 31
0.0
  0
LINE
  5
355
  8
0
 10
73.747627258301
 20
158.668472290039
 30
0.0
 11
73.681384796175
 21
158.687935378256
 31
0.0
  0
LINE
  5
356
  8
0
 10
73.68138885498
 20
158.687942504883
 30
0.0
 11
73.614514073394
 21
158.705107561806
 31
0.0
  0
LINE
  5
357
  8
0
 10
73.61450958252
 20
158.705108642578
 30
0.0
 11
73.547082177413
 21
158.719955212285
 31
0.0
  0
LINE
  5
358
  8
0
 10
73.547080993652
 20
158.719955444336
 30
0.0
 11
73.479181319539
 21
158.732465833889
 31
0.0
  0
LINE
  5
359
  8
0
 10
73.479187011719
 20
158.732467651367
 30
0.0
 11
73.410895985924
 21
158.742626951899
 31
0.0
  0
LINE
  5
35A
  8
0
 10
73.41089630127
 20
158.742630004883
 30
0.0
 11
73.342295307498
 21
158.750426109362
 31
0.0
  0
LINE
  5
35B
  8
0
 10
73.342292785645
 20
158.750427246094
 30
0.0
 11
73.273463576998
 21
158.755850863756
 31
0.0
  0
LINE
  5
35C
  8
0
 10
73.273460388184
 20
158.755844116211
 30
0.0
 11
73.204484989731
 21
158.758888783629
 31
0.0
  0
LINE
  5
35D
  8
0
 10
73.204490661621
 20
158.758895874023
 30
0.0
 11
73.135451272647
 21
158.759557962809
 31
0.0
  0
LINE
  5
35E
  8
0
 10
73.135444641113
 20
158.759552001953
 30
0.0
 11
73.066423537163
 21
158.757830723083
 31
0.0
  0
LINE
  5
35F
  8
0
 10
73.066429138184
 20
158.757827758789
 30
0.0
 11
72.997508573011
 21
158.753725163543
 31
0.0
  0
LINE
  5
360
  8
0
 10
72.997505187988
 20
158.753723144531
 30
0.0
 11
72.928767295534
 21
158.74724412205
 31
0.0
  0
LINE
  5
361
  8
0
 10
72.928771972656
 20
158.747253417969
 30
0.0
 11
72.860298669165
 21
158.738405689426
 31
0.0
  0
LINE
  5
362
  8
0
 10
72.860298156738
 20
158.738403320312
 30
0.0
 11
72.792171043139
 21
158.727197429713
 31
0.0
  0
LINE
  5
363
  8
0
 10
72.792167663574
 20
158.727188110352
 30
0.0
 11
72.724467928237
 21
158.713637411968
 31
0.0
  0
LINE
  5
364
  8
0
 10
72.724464416504
 20
158.713638305664
 30
0.0
 11
72.657272738482
 21
158.697758948119
 31
0.0
  0
LINE
  5
365
  8
0
 10
72.657279968262
 20
158.697769165039
 30
0.0
 11
72.590676421148
 21
158.679580072063
 31
0.0
  0
LINE
  5
366
  8
0
 10
72.590675354004
 20
158.679580688477
 30
0.0
 11
72.524739310504
 21
158.659103536355
 31
0.0
  0
LINE
  5
367
  8
0
 10
72.52473449707
 20
158.659103393555
 30
0.0
 11
72.459544534413
 21
158.636362585297
 31
0.0
  0
LINE
  5
368
  8
0
 10
72.459548950195
 20
158.636352539062
 30
0.0
 11
72.395182756492
 21
158.61137517532
 31
0.0
  0
LINE
  5
369
  8
0
 10
72.395179748535
 20
158.611373901367
 30
0.0
 11
72.331714030194
 21
158.584189748136
 31
0.0
  0
LINE
  5
36A
  8
0
 10
72.331718444824
 20
158.584197998047
 30
0.0
 11
72.269228835142
 21
158.554839451196
 31
0.0
  0
LINE
  5
36B
  8
0
 10
72.269226074219
 20
158.554840087891
 30
0.0
 11
72.207787043244
 21
158.523342134556
 31
0.0
  0
LINE
  5
36C
  8
0
 10
72.207786560059
 20
158.523345947266
 30
0.0
 11
72.147471325845
 21
158.489746124152
 31
0.0
  0
LINE
  5
36D
  8
0
 10
72.147468566895
 20
158.48974609375
 30
0.0
 11
72.088349008248
 21
158.454084442403
 31
0.0
  0
LINE
  5
36E
  8
0
 10
72.088348388672
 20
158.454071044922
 30
0.0
 11
72.030494959486
 21
158.416390064004
 31
0.0
  0
LINE
  5
36F
  8
0
 10
72.030494689941
 20
158.416397094727
 30
0.0
 11
71.973976335242
 21
158.376741689376
 31
0.0
  0
LINE
  5
370
  8
0
 10
71.973976135254
 20
158.376739501953
 30
0.0
 11
71.918860209032
 21
158.335156930265
 31
0.0
  0
LINE
  5
371
  8
0
 10
71.91886138916
 20
158.335159301758
 30
0.0
 11
71.865213574107
 21
158.291699118469
 31
0.0
  0
LINE
  5
372
  8
0
 10
71.865219116211
 20
158.291702270508
 30
0.0
 11
68.801041343735
 21
155.720551831762
 31
0.0
  0
LINE
  5
373
  8
0
 10
68.801040649414
 20
155.720550537109
 30
0.0
 11
68.748924878645
 21
155.675264534542
 31
0.0
  0
LINE
  5
374
  8
0
 10
68.748924255371
 20
155.675262451172
 30
0.0
 11
68.698402636234
 21
155.628204597511
 31
0.0
  0
LINE
  5
375
  8
0
 10
68.698402404785
 20
155.628204345703
 30
0.0
 11
68.649535144849
 21
155.579430720682
 31
0.0
  0
LINE
  5
376
  8
0
 10
68.649536132812
 20
155.579437255859
 30
0.0
 11
68.602381468114
 21
155.529005983928
 31
0.0
  0
LINE
  5
377
  8
0
 10
68.602378845215
 20
155.528991699219
 30
0.0
 11
68.556992970859
 21
155.476962880278
 31
0.0
  0
LINE
  5
378
  8
0
 10
68.556991577148
 20
155.476974487305
 30
0.0
 11
68.51342858034
 21
155.42341012508
 31
0.0
  0
LINE
  5
379
  8
0
 10
68.513427734375
 20
155.423400878906
 30
0.0
 11
68.47173952996
 21
155.368364807061
 31
0.0
  0
LINE
  5
37A
  8
0
 10
68.471740722656
 20
155.368362426758
 30
0.0
 11
68.431976991256
 21
155.31192023282
 31
0.0
  0
LINE
  5
37B
  8
0
 10
68.431976318359
 20
155.311920166016
 30
0.0
 11
68.394184447164
 21
155.254139113213
 31
0.0
  0
LINE
  5
37C
  8
0
 10
68.394187927246
 20
155.254150390625
 30
0.0
 11
68.358412953543
 21
155.19509933773
 31
0.0
  0
LINE
  5
37D
  8
0
 10
68.358413696289
 20
155.195098876953
 30
0.0
 11
68.32469825379
 21
155.134848196222
 31
0.0
  0
LINE
  5
37E
  8
0
 10
68.324699401855
 20
155.134841918945
 30
0.0
 11
68.29308366989
 21
155.073463412253
 31
0.0
  0
LINE
  5
37F
  8
0
 10
68.293083190918
 20
155.073471069336
 30
0.0
 11
68.263604846552
 21
155.011037882609
 31
0.0
  0
LINE
  5
380
  8
0
 10
68.263603210449
 20
155.011032104492
 30
0.0
 11
68.236297383583
 21
154.947618640539
 31
0.0
  0
LINE
  5
381
  8
0
 10
68.236297607422
 20
154.947616577148
 30
0.0
 11
68.211196838925
 21
154.883298406992
 31
0.0
  0
LINE
  5
382
  8
0
 10
68.211196899414
 20
154.88330078125
 30
0.0
 11
68.188331102346
 21
154.818154554069
 31
0.0
  0
LINE
  5
383
  8
0
 10
68.188331604004
 20
154.818161010742
 30
0.0
 11
68.167728027968
 21
154.752264362527
 31
0.0
  0
LINE
  5
384
  8
0
 10
68.167724609375
 20
154.752258300781
 30
0.0
 11
68.149407808042
 21
154.685689761813
 31
0.0
  0
LINE
  5
385
  8
0
 10
68.149406433105
 20
154.685684204102
 30
0.0
 11
68.133398234954
 21
154.618523105366
 31
0.0
  0
LINE
  5
386
  8
0
 10
68.133399963379
 20
154.618530273438
 30
0.0
 11
68.119719445681
 21
154.550856652085
 31
0.0
  0
LINE
  5
387
  8
0
 10
68.119720458984
 20
154.550857543945
 30
0.0
 11
68.108383925071
 21
154.48275204791
 31
0.0
  0
LINE
  5
388
  8
0
 10
68.108383178711
 20
154.482757568359
 30
0.0
 11
68.099404138544
 21
154.414301360247
 31
0.0
  0
LINE
  5
389
  8
0
 10
68.099403381348
 20
154.414291381836
 30
0.0
 11
68.092792535419
 21
154.345566042204
 31
0.0
  0
LINE
  5
38A
  8
0
 10
68.092796325684
 20
154.345565795898
 30
0.0
 11
68.088561552264
 21
154.276653226033
 31
0.0
  0
LINE
  5
38B
  8
0
 10
68.088562011719
 20
154.276657104492
 30
0.0
 11
68.086708357467
 21
154.207639428804
 31
0.0
  0
LINE
  5
38C
  8
0
 10
68.086708068848
 20
154.207641601562
 30
0.0
 11
68.087237742799
 21
154.138601069721
 31
0.0
  0
LINE
  5
38D
  8
0
 10
68.08723449707
 20
154.138595581055
 30
0.0
 11
68.090146868002
 21
154.069614469966
 31
0.0
  0
LINE
  5
38E
  8
0
 10
68.090148925781
 20
154.069610595703
 30
0.0
 11
68.095440522966
 21
154.000771111461
 31
0.0
  0
LINE
  5
38F
  8
0
 10
68.095436096191
 20
154.000778198242
 30
0.0
 11
68.103100613532
 21
153.932162378161
 31
0.0
  0
LINE
  5
390
  8
0
 10
68.103103637695
 20
153.932159423828
 30
0.0
 11
68.113131941243
 21
153.863849038678
 31
0.0
  0
LINE
  5
391
  8
0
 10
68.113128662109
 20
153.863845825195
 30
0.0
 11
68.125508800944
 21
153.795922281752
 31
0.0
  0
LINE
  5
392
  8
0
 10
68.125511169434
 20
153.795928955078
 30
0.0
 11
68.14022838991
 21
153.728473199113
 31
0.0
  0
LINE
  5
393
  8
0
 10
68.140228271484
 20
153.728469848633
 30
0.0
 11
68.157265034813
 21
153.661562268444
 31
0.0
  0
LINE
  5
394
  8
0
 10
68.157264709473
 20
153.661560058594
 30
0.0
 11
68.176600712621
 21
153.59528038921
 31
0.0
  0
LINE
  5
395
  8
0
 10
68.176605224609
 20
153.595291137695
 30
0.0
 11
68.198217424497
 21
153.52971836585
 31
0.0
  0
LINE
  5
396
  8
0
 10
68.198211669922
 20
153.529708862305
 30
0.0
 11
68.222074310882
 21
153.46492113231
 31
0.0
  0
LINE
  5
397
  8
0
 10
68.222076416016
 20
153.464920043945
 30
0.0
 11
68.248161060487
 21
153.400994564563
 31
0.0
  0
LINE
  5
398
  8
0
 10
68.248161315918
 20
153.401000976562
 30
0.0
 11
68.276436878338
 21
153.338013928995
 31
0.0
  0
LINE
  5
399
  8
0
 10
68.276435852051
 20
153.338012695312
 30
0.0
 11
68.306868635897
 21
153.276039142414
 31
0.0
  0
LINE
  5
39A
  8
0
 10
68.306869506836
 20
153.276031494141
 30
0.0
 11
68.339423244784
 21
153.215145290966
 31
0.0
  0
LINE
  5
39B
  8
0
 10
68.339424133301
 20
153.215148925781
 30
0.0
 11
68.374060030447
 21
153.155422631569
 31
0.0
  0
LINE
  5
39C
  8
0
 10
68.374061584473
 20
153.155426025391
 30
0.0
 11
68.410738364564
 21
153.096930817095
 31
0.0
  0
LINE
  5
39D
  8
0
 10
68.410736083984
 20
153.096923828125
 30
0.0
 11
68.449410038608
 21
153.03972941559
 31
0.0
  0
LINE
  5
39E
  8
0
 10
68.449409484863
 20
153.039733886719
 30
0.0
 11
68.490034525537
 21
152.983908429607
 31
0.0
  0
LINE
  5
39F
  8
0
 10
68.490036010742
 20
152.983917236328
 30
0.0
 11
68.532563723837
 21
152.929527262892
 31
0.0
  0
LINE
  5
3A0
  8
0
 10
68.532562255859
 20
152.92951965332
 30
0.0
 11
68.576941960296
 21
152.876629981119
 31
0.0
  0
LINE
  5
3A1
  8
0
 10
68.576942443848
 20
152.87663269043
 30
0.0
 11
68.623121251494
 21
152.825306349085
 31
0.0
  0
LINE
  5
3A2
  8
0
 10
68.623123168945
 20
152.825302124023
 30
0.0
 11
68.671046047644
 21
152.775600280107
 31
0.0
  0
LINE
  5
3A3
  8
0
 10
68.671043395996
 20
152.775604248047
 30
0.0
 11
68.720653235146
 21
152.727586132185
 31
0.0
  0
LINE
  5
3A4
  8
0
 10
68.720657348633
 20
152.727584838867
 30
0.0
 11
68.771895027251
 21
152.681307675155
 31
0.0
  0
LINE
  5
3A5
  8
0
 10
68.77188873291
 20
152.681304931641
 30
0.0
 11
68.824693190088
 21
152.63682386945
 31
0.0
  0
LINE
  5
3A6
  8
0
 10
68.824699401855
 20
152.636825561523
 30
0.0
 11
68.879007709522
 21
152.594193609776
 31
0.0
  0
LINE
  5
3A7
  8
0
 10
68.879005432129
 20
152.594192504883
 30
0.0
 11
68.934752870048
 21
152.553460468881
 31
0.0
  0
LINE
  5
3A8
  8
0
 10
68.934753417969
 20
152.553466796875
 30
0.0
 11
68.991873550866
 21
152.514683217756
 31
0.0
  0
LINE
  5
3A9
  8
0
 10
68.991874694824
 20
152.514678955078
 30
0.0
 11
69.050299451557
 21
152.477890051967
 31
0.0
  0
LINE
  5
3AA
  8
0
 10
69.050300598145
 20
152.477890014648
 30
0.0
 11
69.109960352826
 21
152.443139629575
 31
0.0
  0
LINE
  5
3AB
  8
0
 10
69.109954833984
 20
152.443145751953
 30
0.0
 11
69.170778488958
 21
152.410475297609
 31
0.0
  0
LINE
  5
3AC
  8
0
 10
69.170783996582
 20
152.410461425781
 30
0.0
 11
69.232699067149
 21
152.379909836163
 31
0.0
  0
LINE
  5
3AD
  8
0
 10
69.232696533203
 20
152.379913330078
 30
0.0
 11
69.295629234003
 21
152.351517014094
 31
0.0
  0
LINE
  5
3AE
  8
0
 10
69.295631408691
 20
152.351516723633
 30
0.0
 11
69.359506741635
 21
152.325309521708
 31
0.0
  0
LINE
  5
3AF
  8
0
 10
69.359504699707
 20
152.325317382812
 30
0.0
 11
69.424246543354
 21
152.301330526565
 31
0.0
  0
LINE
  5
3B0
  8
0
 10
69.424247741699
 20
152.301330566406
 30
0.0
 11
69.489778941971
 21
152.279592641426
 31
0.0
  0
LINE
  5
3B1
  8
0
 10
69.489776611328
 20
152.279586791992
 30
0.0
 11
69.556019073454
 21
152.260123703776
 31
0.0
  0
LINE
  5
3B2
  8
0
 10
69.556022644043
 20
152.260131835938
 30
0.0
 11
69.62289742563
 21
152.242966779014
 31
0.0
  0
LINE
  5
3B3
  8
0
 10
69.622894287109
 20
152.242965698242
 30
0.0
 11
69.690321692216
 21
152.228119128535
 31
0.0
  0
LINE
  5
3B4
  8
0
 10
69.690322875977
 20
152.228118896484
 30
0.0
 11
69.75822255009
 21
152.215608506931
 31
0.0
  0
LINE
  5
3B5
  8
0
 10
69.758224487305
 20
152.215606689453
 30
0.0
 11
69.8265155131
 21
152.205447388922
 31
0.0
  0
LINE
  5
3B6
  8
0
 10
69.826515197754
 20
152.205444335938
 30
0.0
 11
69.895116191525
 21
152.197648231458
 31
0.0
  0
LINE
  5
3B7
  8
0
 10
69.895111083984
 20
152.197647094727
 30
0.0
 11
69.963940292631
 21
152.192223477064
 31
0.0
  0
LINE
  5
3B8
  8
0
 10
69.963943481445
 20
152.192230224609
 30
0.0
 11
70.032918879898
 21
152.189185557191
 31
0.0
  0
LINE
  5
3B9
  8
0
 10
70.032920837402
 20
152.189178466797
 30
0.0
 11
70.101960226376
 21
152.188516378011
 31
0.0
  0
LINE
  5
3BA
  8
0
 10
174.562789916992
 20
166.310501098633
 30
0.0
 11
219.24444084038
 21
192.499999079785
 31
0.0
  0
LINE
  5
3BB
  8
0
 10
219.244445800781
 20
192.5
 30
0.0
 11
219.244445800781
 21
233.5
 31
0.0
  0
LINE
  5
3BC
  8
0
 10
219.244445800781
 20
233.5
 30
0.0
 11
205.244445800781
 21
233.5
 31
0.0
  0
LINE
  5
3BD
  8
0
 10
205.244445800781
 20
233.5
 30
0.0
 11
185.244445808232
 21
230.5
 31
0.0
  0
LINE
  5
3BE
  8
0
 10
185.244445800781
 20
230.5
 30
0.0
 11
185.244445800781
 21
210.5
 31
0.0
  0
LINE
  5
3BF
  8
0
 10
185.244445800781
 20
210.5
 30
0.0
 11
145.244445800781
 21
210.5
 31
0.0
  0
LINE
  5
3C0
  8
0
 10
145.244445800781
 20
210.5
 30
0.0
 11
145.244445793331
 21
230.5
 31
0.0
  0
LINE
  5
3C1
  8
0
 10
145.244445800781
 20
230.5
 30
0.0
 11
125.244445800781
 21
233.5
 31
0.0
  0
LINE
  5
3C2
  8
0
 10
125.244445800781
 20
233.5
 30
0.0
 11
111.244445800781
 21
233.5
 31
0.0
  0
LINE
  5
3C3
  8
0
 10
111.244445800781
 20
233.5
 30
0.0
 11
111.244445800781
 21
210.5
 31
0.0
  0
LINE
  5
3C4
  8
0
 10
111.244445800781
 20
210.5
 30
0.0
 11
149.954739347157
 21
169.784322841136
 31
0.0
  0
ARC
  5
3C5
  8
0
 10
164.449325561523
 20
183.565002441406
 30
0.0
 40
20.0
 50
223.5536769656129
 51
300.376077757056
  0
LINE
  5
3C6
  8
0
 10
317.710876464844
 20
194.500030517578
 30
0.0
 11
317.777989720565
 21
230.499967959342
 31
0.0
  0
LINE
  5
3C7
  8
0
 10
317.778015136719
 20
230.499969482422
 30
0.0
 11
296.796694200057
 21
240.539101504305
 31
0.0
  0
LINE
  5
3C8
  8
0
 10
296.796691894531
 20
240.539108276367
 30
0.0
 11
256.796761403683
 21
240.613678560502
 31
0.0
  0
LINE
  5
3C9
  8
0
 10
256.796752929688
 20
240.613677978516
 30
0.0
 11
222.778169441432
 21
230.677080097319
 31
0.0
  0
LINE
  5
3CA
  8
0
 10
222.778167724609
 20
230.67707824707
 30
0.0
 11
222.711054468888
 21
194.677140805306
 31
0.0
  0
LINE
  5
3CB
  8
0
 10
222.711059570312
 20
194.677139282227
 30
0.0
 11
236.71103524211
 21
194.651039682779
 31
0.0
  0
LINE
  5
3CC
  8
0
 10
236.711029052734
 20
194.651031494141
 30
0.0
 11
256.740822411809
 21
210.61371854618
 31
0.0
  0
LINE
  5
3CD
  8
0
 10
256.740814208984
 20
210.613723754883
 30
0.0
 11
256.778099358515
 21
230.613689006999
 31
0.0
  0
LINE
  5
3CE
  8
0
 10
256.778106689453
 20
230.613693237305
 30
0.0
 11
296.778037180302
 21
230.539122953169
 31
0.0
  0
LINE
  5
3CF
  8
0
 10
296.778045654297
 20
230.539123535156
 30
0.0
 11
296.74076050477
 21
210.539158285273
 31
0.0
  0
LINE
  5
3D0
  8
0
 10
296.740753173828
 20
210.539154052734
 30
0.0
 11
303.710912896073
 21
194.526132056671
 31
0.0
  0
LINE
  5
3D1
  8
0
 10
303.710906982422
 20
194.526138305664
 30
0.0
 11
317.710882654219
 21
194.500038706217
 31
0.0
  0
LINE
  5
3D2
  8
0
 10
24.744443893433
 20
202.5
 30
0.0
 11
46.744443885982
 21
202.5
 31
0.0
  0
LINE
  5
3D3
  8
0
 10
46.744441986084
 20
202.5
 30
0.0
 11
71.744441993535
 21
208.5
 31
0.0
  0
LINE
  5
3D4
  8
0
 10
71.744445800781
 20
208.5
 30
0.0
 11
104.744445800781
 21
208.5
 31
0.0
  0
LINE
  5
3D5
  8
0
 10
104.744445800781
 20
208.5
 30
0.0
 11
104.744445800781
 21
231.5
 31
0.0
  0
LINE
  5
3D6
  8
0
 10
104.744445800781
 20
231.5
 30
0.0
 11
71.744445800781
 21
231.49999999553
 31
0.0
  0
LINE
  5
3D7
  8
0
 10
71.744445800781
 20
231.5
 30
0.0
 11
53.74444580078101
 21
236.500000004392
 31
0.0
  0
LINE
  5
3D8
  8
0
 10
53.744445800781
 20
236.5
 30
0.0
 11
24.744445800781
 21
236.500000000078
 31
0.0
  0
LINE
  5
3D9
  8
0
 10
24.744443893433
 20
236.5
 30
0.0
 11
24.744443893433
 21
202.5
 31
0.0
  0
LINE
  5
3DA
  8
0
 10
239.744445800781
 20
245.755554199219
 30
0.0
 11
293.744445800781
 21
245.755554199219
 31
0.0
  0
LINE
  5
3DB
  8
0
 10
293.744445800781
 20
245.755554199219
 30
0.0
 11
293.744445800781
 21
279.755554199219
 31
0.0
  0
LINE
  5
3DC
  8
0
 10
293.744445800781
 20
279.755554199219
 30
0.0
 11
260.744445800781
 21
279.755554199219
 31
0.0
  0
LINE
  5
3DD
  8
0
 10
260.744445800781
 20
279.755554199219
 30
0.0
 11
260.744445800781
 21
317.755554199219
 31
0.0
  0
LINE
  5
3DE
  8
0
 10
260.744445800781
 20
317.755554199219
 30
0.0
 11
228.744445800781
 21
317.755554199219
 31
0.0
  0
LINE
  5
3DF
  8
0
 10
228.744445800781
 20
317.755554199219
 30
0.0
 11
228.744445800781
 21
279.755554199219
 31
0.0
  0
LINE
  5
3E0
  8
0
 10
228.744445800781
 20
279.755554199219
 30
0.0
 11
239.744445800781
 21
245.755554199219
 31
0.0
  0
LINE
  5
3E1
  8
0
 10
296.744445800781
 20
245.755554199219
 30
0.0
 11
328.744445800781
 21
245.755554199219
 31
0.0
  0
LINE
  5
3E2
  8
0
 10
328.744445800781
 20
245.755554199219
 30
0.0
 11
328.744445800781
 21
283.755554199219
 31
0.0
  0
LINE
  5
3E3
  8
0
 10
328.744445800781
 20
283.755554199219
 30
0.0
 11
317.744445800781
 21
317.755554199219
 31
0.0
  0
LINE
  5
3E4
  8
0
 10
317.744445800781
 20
317.755554199219
 30
0.0
 11
263.744445800781
 21
317.755554199219
 31
0.0
  0
LINE
  5
3E5
  8
0
 10
263.744445800781
 20
317.755554199219
 30
0.0
 11
263.744445800781
 21
283.755554199219
 31
0.0
  0
LINE
  5
3E6
  8
0
 10
263.744445800781
 20
283.755554199219
 30
0.0
 11
296.744445800781
 21
283.755554199219
 31
0.0
  0
LINE
  5
3E7
  8
0
 10
296.744445800781
 20
283.755554199219
 30
0.0
 11
296.744445800781
 21
245.755554199219
 31
0.0
  0
LINE
  5
3E8
  8
0
 10
90.744445800781
 20
62.755554199219
 30
0.0
 11
102.744445800781
 21
62.755554199219
 31
0.0
  0
LINE
  5
3E9
  8
0
 10
102.744445800781
 20
62.755554199219
 30
0.0
 11
102.744445800781
 21
89.755554199219
 31
0.0
  0
LINE
  5
3EA
  8
0
 10
102.744445800781
 20
89.755554199219
 30
0.0
 11
126.744445800781
 21
89.755554199219
 31
0.0
  0
LINE
  5
3EB
  8
0
 10
126.744445800781
 20
89.755554199219
 30
0.0
 11
126.744445800781
 21
111.755554199219
 31
0.0
  0
LINE
  5
3EC
  8
0
 10
126.744445800781
 20
111.755554199219
 30
0.0
 11
90.744445800781
 21
111.755554199219
 31
0.0
  0
LINE
  5
3ED
  8
0
 10
90.744445800781
 20
111.755554199219
 30
0.0
 11
90.744445800781
 21
62.755554199219
 31
0.0
  0
LINE
  5
3EE
  8
0
 10
238.744445800781
 20
57.755554199219
 30
0.0
 11
250.744445800781
 21
57.755554199219
 31
0.0
  0
LINE
  5
3EF
  8
0
 10
250.744445800781
 20
57.755554199219
 30
0.0
 11
250.744445800781
 21
84.755554199219
 31
0.0
  0
LINE
  5
3F0
  8
0
 10
250.744445800781
 20
84.755554199219
 30
0.0
 11
274.744445800781
 21
84.755554199219
 31
0.0
  0
LINE
  5
3F1
  8
0
 10
274.744445800781
 20
84.755554199219
 30
0.0
 11
274.744445800781
 21
106.755554199219
 31
0.0
  0
LINE
  5
3F2
  8
0
 10
274.744445800781
 20
106.755554199219
 30
0.0
 11
238.744445800781
 21
106.755554199219
 31
0.0
  0
LINE
  5
3F3
  8
0
 10
238.744445800781
 20
106.755554199219
 30
0.0
 11
238.744445800781
 21
57.755554199219
 31
0.0
  0
CIRCLE
  5
3F4
  8
0
 10
286.740814208984
 20
195.613723754883
 30
0.0
 40
2.5
  0
CIRCLE
  5
3F5
  8
0
 10
266.740814208984
 20
195.613723754883
 30
0.0
 40
2.5
  0
CIRCLE
  5
3F6
  8
0
 10
286.740814208984
 20
215.613723754883
 30
0.0
 40
2.5
  0
CIRCLE
  5
3F7
  8
0
 10
266.740814208984
 20
215.613723754883
 30
0.0
 40
2.5
  0
LINE
  5
3F8
  8
0
 10
260.740814208984
 20
188.613723754883
 30
0.0
 11
292.740814208984
 21
188.613723754883
 31
0.0
  0
LINE
  5
3F9
  8
0
 10
292.740814208984
 20
188.613723754883
 30
0.0
 11
292.740814208984
 21
225.613723754883
 31
0.0
  0
LINE
  5
3FA
  8
0
 10
292.740814208984
 20
225.613723754883
 30
0.0
 11
260.740814208984
 21
225.613723754883
 31
0.0
  0
LINE
  5
3FB
  8
0
 10
260.740814208984
 20
225.613723754883
 30
0.0
 11
260.740814208984
 21
188.613723754883
 31
0.0
  0
CIRCLE
  5
3FC
  8
0
 10
410.704071044922
 20
184.197799682617
 30
0.0
 40
2.5
  0
CIRCLE
  5
3FD
  8
0
 10
410.704071044922
 20
214.197799682617
 30
0.0
 40
2.5
  0
CIRCLE
  5
3FE
  8
0
 10
390.704071044922
 20
199.197799682617
 30
0.0
 40
9.5
  0
LINE
  5
3FF
  8
0
 10
380.704071044922
 20
225.197799682617
 30
0.0
 11
380.704071044922
 21
211.040518969415
 31
0.0
  0
ARC
  5
400
  8
0
 10
390.704071044922
 20
199.197799682617
 30
0.0
 40
15.5
 50
130.1777695401459
 51
229.8222304598529
  0
LINE
  5
401
  8
0
 10
380.704071044922
 20
187.355072021484
 30
0.0
 11
380.704071044922
 21
173.197791299341
 31
0.0
  0
LINE
  5
402
  8
0
 10
380.704071044922
 20
173.197799682617
 30
0.0
 11
420.704071044922
 21
173.197799682617
 31
0.0
  0
LINE
  5
403
  8
0
 10
420.704071044922
 20
173.197799682617
 30
0.0
 11
420.704071044922
 21
225.197799682617
 31
0.0
  0
LINE
  5
404
  8
0
 10
420.704071044922
 20
225.197799682617
 30
0.0
 11
380.704071044922
 21
225.197799682618
 31
0.0
  0
CIRCLE
  5
405
  8
0
 10
330.436676025391
 20
151.689636230469
 30
0.0
 40
2.5
  0
CIRCLE
  5
406
  8
0
 10
330.436676025391
 20
119.689628601074
 30
0.0
 40
2.5
  0
CIRCLE
  5
407
  8
0
 10
345.436676025391
 20
181.689636230469
 30
0.0
 40
12.0
  0
CIRCLE
  5
408
  8
0
 10
293.436676025391
 20
175.689636230469
 30
0.0
 40
2.5
  0
CIRCLE
  5
409
  8
0
 10
313.436676025391
 20
175.689636230469
 30
0.0
 40
2.5
  0
CIRCLE
  5
40A
  8
0
 10
345.436676025391
 20
135.689636230469
 30
0.0
 40
9.5
  0
LINE
  5
40B
  8
0
 10
334.006561279297
 20
113.093727111816
 30
0.0
 11
357.279395885085
 21
125.689629129594
 31
0.0
  0
LINE
  5
40C
  8
0
 10
357.279418945312
 20
125.689628601074
 30
0.0
 11
371.436699667456
 21
125.689628601074
 31
0.0
  0
LINE
  5
40D
  8
0
 10
371.436676025391
 20
125.689628601074
 30
0.0
 11
371.436676025391
 21
185.689628601074
 31
0.0
  0
LINE
  5
40E
  8
0
 10
371.436676025391
 20
185.689636230469
 30
0.0
 11
367.436676025391
 21
185.689636230469
 31
0.0
  0
LINE
  5
40F
  8
0
 10
367.436676025391
 20
185.689636230469
 30
0.0
 11
367.436676025391
 21
203.689636230469
 31
0.0
  0
LINE
  5
410
  8
0
 10
367.436676025391
 20
203.689636230469
 30
0.0
 11
324.436676025391
 21
203.689636230469
 31
0.0
  0
LINE
  5
411
  8
0
 10
324.436676025391
 20
203.689636230469
 30
0.0
 11
324.436676025391
 21
185.689636230469
 31
0.0
  0
LINE
  5
412
  8
0
 10
324.436676025391
 20
185.689636230469
 30
0.0
 11
287.436676025391
 21
185.689636230469
 31
0.0
  0
LINE
  5
413
  8
0
 10
287.436676025391
 20
185.689636230469
 30
0.0
 11
287.436676025391
 21
165.689636230469
 31
0.0
  0
LINE
  5
414
  8
0
 10
287.436676025391
 20
165.689636230469
 30
0.0
 11
318.436676025391
 21
165.689636230469
 31
0.0
  0
ARC
  5
415
  8
0
 10
319.436676025391
 20
165.689636230469
 30
0.0000000000000009
 40
1.0
 50
270.0
 51
180.0
  0
LINE
  5
416
  8
0
 10
319.436676025391
 20
164.689636230469
 30
0.0
 11
319.436676025391
 21
125.689636230469
 31
0.0
  0
LINE
  5
417
  8
0
 10
319.436676025391
 20
125.689628601074
 30
0.0
 11
323.618622855025
 21
116.564864455404
 31
0.0
  0
ARC
  5
418
  8
0
 10
330.436676025391
 20
119.689628601074
 30
0.0
 40
7.5
 50
204.6223363252629
 51
298.4234781057779
  0
ARC
  5
419
  8
0
 10
330.536682128906
 20
165.189636230469
 30
0.0
 40
1.5
 50
179.9999999999957
 51
0.0
  0
LINE
  5
41A
  8
0
 10
332.036682128906
 20
165.189636230469
 30
0.0
 11
332.036682128906
 21
167.189636230469
 31
0.0
  0
ARC
  5
41B
  8
0
 10
330.536682128906
 20
167.189636230469
 30
0.0
 40
1.5
 50
0.0
 51
180.0
  0
LINE
  5
41C
  8
0
 10
329.036682128906
 20
167.189636230469
 30
0.0
 11
329.036682128906
 21
165.189636230469
 31
0.0
  0
LINE
  5
41D
  8
0
 10
360.036682128906
 20
167.189636230469
 30
0.0
 11
360.036682128906
 21
165.189636230469
 31
0.0
  0
ARC
  5
41E
  8
0
 10
361.536682128906
 20
165.189636230469
 30
0.0
 40
1.5
 50
179.9999999999957
 51
0.0
  0
LINE
  5
41F
  8
0
 10
363.036682128906
 20
165.189636230469
 30
0.0
 11
363.036682128906
 21
167.189636230469
 31
0.0
  0
ARC
  5
420
  8
0
 10
361.536682128906
 20
167.189636230469
 30
0.0
 40
1.5
 50
0.0
 51
180.0
  0
ARC
  5
421
  8
0
 10
330.536682128906
 20
196.189636230469
 30
0.0
 40
1.5
 50
180.0
 51
359.9999999999957
  0
LINE
  5
422
  8
0
 10
332.036682128906
 20
196.189636230469
 30
0.0
 11
332.036682128906
 21
198.189636230469
 31
0.0
  0
ARC
  5
423
  8
0
 10
330.536682128906
 20
198.189636230469
 30
0.0
 40
1.5
 50
0.0
 51
180.0
  0
LINE
  5
424
  8
0
 10
329.036682128906
 20
198.189636230469
 30
0.0
 11
329.036682128906
 21
196.189636230469
 31
0.0
  0
ARC
  5
425
  8
0
 10
361.536682128906
 20
196.189636230469
 30
0.0
 40
1.5
 50
179.9999999999957
 51
0.0
  0
LINE
  5
426
  8
0
 10
363.036682128906
 20
196.189636230469
 30
0.0
 11
363.036682128906
 21
198.189636230469
 31
0.0
  0
ARC
  5
427
  8
0
 10
361.536682128906
 20
198.189636230469
 30
0.0
 40
1.5
 50
0.0
 51
179.9999999999957
  0
LINE
  5
428
  8
0
 10
360.036682128906
 20
198.189636230469
 30
0.0
 11
360.036682128906
 21
196.189636230469
 31
0.0
  0
CIRCLE
  5
429
  8
0
 10
393.704071044922
 20
151.197799682617
 30
0.0
 40
9.5
  0
CIRCLE
  5
42A
  8
0
 10
380.704071044922
 20
151.197799682617
 30
0.0
 40
2.0
  0
CIRCLE
  5
42B
  8
0
 10
406.704071044922
 20
151.197799682617
 30
0.0
 40
2.0
  0
CIRCLE
  5
42C
  8
0
 10
401.704071044922
 20
91.197799682617
 30
0.0
 40
2.5
  0
CIRCLE
  5
42D
  8
0
 10
386.635894775391
 20
91.197799682617
 30
0.0
 40
2.5
  0
CIRCLE
  5
42E
  8
0
 10
386.635894775391
 20
111.197799682617
 30
0.0
 40
2.5
  0
CIRCLE
  5
42F
  8
0
 10
401.704071044922
 20
111.197799682617
 30
0.0
 40
2.5
  0
CIRCLE
  5
430
  8
0
 10
393.704071044922
 20
51.197799682617
 30
0.0
 40
20.0
  0
LINE
  5
431
  8
0
 10
363.704071044922
 20
81.197799682617
 30
0.0
 11
363.704071052372
 21
21.197799682617
 31
0.0
  0
LINE
  5
432
  8
0
 10
363.704071044922
 20
21.197797775269
 30
0.0
 11
423.704071037471
 21
21.197797775268
 31
0.0
  0
LINE
  5
433
  8
0
 10
423.704071044922
 20
21.197797775269
 30
0.0
 11
423.704071044922
 21
161.197797775268
 31
0.0
  0
LINE
  5
434
  8
0
 10
423.704071044922
 20
161.197799682617
 30
0.0
 11
399.731165675793
 21
169.216515794463
 31
0.0
  0
ARC
  5
435
  8
0
 10
393.704071044922
 20
151.197799682617
 30
0.0
 40
19.00000000447
 50
71.50538615166403
 51
180.0
  0
LINE
  5
436
  8
0
 10
374.704071044922
 20
151.197799682617
 30
0.0
 11
374.704071044922
 21
121.197799687088
 31
0.0
  0
LINE
  5
437
  8
0
 10
374.704071044922
 20
121.197799682617
 30
0.0
 11
363.704071049392
 21
81.197799682617
 31
0.0
  0
LINE
  5
438
  8
0
 10
367.604064941406
 20
75.797798156738
 30
0.0
 11
367.604064941406
 21
73.797798156738
 31
0.0
  0
ARC
  5
439
  8
0
 10
370.104064941406
 20
73.797798156738
 30
0.0
 40
2.5
 50
180.0
 51
0.0
  0
LINE
  5
43A
  8
0
 10
372.604064941406
 20
73.797798156738
 30
0.0
 11
372.604064941406
 21
75.797798156738
 31
0.0
  0
ARC
  5
43B
  8
0
 10
370.104064941406
 20
75.797798156738
 30
0.0
 40
2.5
 50
0.0
 51
180.0
  0
LINE
  5
43C
  8
0
 10
367.604064941406
 20
28.597799301147
 30
0.0
 11
367.604064941406
 21
26.597799301147
 31
0.0
  0
ARC
  5
43D
  8
0
 10
370.104064941406
 20
26.597799301147
 30
0.0
 40
2.5
 50
180.0
 51
0.0
  0
LINE
  5
43E
  8
0
 10
372.604064941406
 20
26.597799301147
 30
0.0
 11
372.604064941406
 21
28.597799301147
 31
0.0
  0
ARC
  5
43F
  8
0
 10
370.104064941406
 20
28.597799301147
 30
0.0
 40
2.5
 50
0.0
 51
180.0
  0
LINE
  5
440
  8
0
 10
390.504089355469
 20
114.697799682617
 30
0.0
 11
390.504089355469
 21
107.697799682617
 31
0.0
  0
LINE
  5
441
  8
0
 10
390.504089355469
 20
107.697799682617
 30
0.0
 11
397.904089346528
 21
107.697799682617
 31
0.0
  0
LINE
  5
442
  8
0
 10
397.904083251953
 20
107.697799682617
 30
0.0
 11
397.904083251953
 21
114.697799682617
 31
0.0
  0
LINE
  5
443
  8
0
 10
397.904083251953
 20
114.697799682617
 30
0.0
 11
390.504083260894
 21
114.697799682617
 31
0.0
  0
LINE
  5
444
  8
0
 10
390.504089355469
 20
94.697799682617
 30
0.0
 11
390.504089355469
 21
87.697799682617
 31
0.0
  0
LINE
  5
445
  8
0
 10
390.504089355469
 20
87.697799682617
 30
0.0
 11
397.904089346528
 21
87.697799682617
 31
0.0
  0
LINE
  5
446
  8
0
 10
397.904083251953
 20
87.697799682617
 30
0.0
 11
397.904083251953
 21
94.697799682617
 31
0.0
  0
LINE
  5
447
  8
0
 10
397.904083251953
 20
94.697799682617
 30
0.0
 11
390.504083260894
 21
94.697799682617
 31
0.0
  0
LINE
  5
448
  8
0
 10
411.686065673828
 20
114.697799682617
 30
0.0
 11
411.686065673828
 21
107.697799682617
 31
0.0
  0
LINE
  5
449
  8
0
 10
411.686065673828
 20
107.697799682617
 30
0.0
 11
419.086065664887
 21
107.697799682617
 31
0.0
  0
LINE
  5
44A
  8
0
 10
419.086059570312
 20
107.697799682617
 30
0.0
 11
419.086059570312
 21
114.697799682617
 31
0.0
  0
LINE
  5
44B
  8
0
 10
419.086059570312
 20
114.697799682617
 30
0.0
 11
411.686059579253
 21
114.697799682617
 31
0.0
  0
LINE
  5
44C
  8
0
 10
411.686065673828
 20
94.697799682617
 30
0.0
 11
411.686065673828
 21
87.697799682617
 31
0.0
  0
LINE
  5
44D
  8
0
 10
411.686065673828
 20
87.697799682617
 30
0.0
 11
419.086065664887
 21
87.697799682617
 31
0.0
  0
LINE
  5
44E
  8
0
 10
419.086059570312
 20
87.697799682617
 30
0.0
 11
419.086059570312
 21
94.697799682617
 31
0.0
  0
LINE
  5
44F
  8
0
 10
419.086059570312
 20
94.697799682617
 30
0.0
 11
411.686059579253
 21
94.697799682617
 31
0.0
  0
LINE
  5
450
  8
0
 10
414.804077148438
 20
75.797798156738
 30
0.0
 11
414.804077148438
 21
73.797798156738
 31
0.0
  0
ARC
  5
451
  8
0
 10
417.304077148438
 20
73.797798156738
 30
0.0
 40
2.5
 50
180.0
 51
0.0
  0
LINE
  5
452
  8
0
 10
419.804077148438
 20
73.797798156738
 30
0.0
 11
419.804077148438
 21
75.797798156738
 31
0.0
  0
ARC
  5
453
  8
0
 10
417.304077148438
 20
75.797798156738
 30
0.0
 40
2.5
 50
0.0
 51
180.0
  0
LINE
  5
454
  8
0
 10
414.804077148438
 20
28.597799301147
 30
0.0
 11
414.804077148438
 21
26.597799301147
 31
0.0
  0
ARC
  5
455
  8
0
 10
417.304077148438
 20
26.597799301147
 30
0.0
 40
2.5
 50
180.0
 51
0.0
  0
LINE
  5
456
  8
0
 10
419.804077148438
 20
26.597799301147
 30
0.0
 11
419.804077148438
 21
28.597799301147
 31
0.0
  0
ARC
  5
457
  8
0
 10
417.304077148438
 20
28.597799301147
 30
0.0
 40
2.5
 50
0.0
 51
180.0
  0
CIRCLE
  5
458
  8
0
 10
62.48888778686501
 20
273.5
 30
0.0
 40
2.5
  0
LINE
  5
459
  8
0
 10
64.488891601562
 20
244.5
 30
0.0
 11
87.488891601562
 21
244.5
 31
0.0
  0
LINE
  5
45A
  8
0
 10
87.488891601562
 20
244.5
 30
0.0
 11
87.488891601562
 21
269.5
 31
0.0
  0
LINE
  5
45B
  8
0
 10
87.488891601562
 20
269.5
 30
0.0
 11
93.488891601562
 21
294.500000007451
 31
0.0
  0
LINE
  5
45C
  8
0
 10
93.488891601562
 20
294.5
 30
0.0
 11
93.488891601562
 21
316.499999992549
 31
0.0
  0
LINE
  5
45D
  8
0
 10
93.488891601562
 20
316.5
 30
0.0
 11
36.488891601562
 21
316.5
 31
0.0
  0
LINE
  5
45E
  8
0
 10
36.488887786865
 20
316.5
 30
0.0
 11
23.351565007393
 21
275.804045038974
 31
0.0
  0
ARC
  5
45F
  8
0
 10
30.488887786865
 20
273.5
 30
0.0
 40
7.5
 50
162.109068197485
 51
239.199506291588
  0
LINE
  5
460
  8
0
 10
26.648511886597
 20
267.057830810547
 30
0.0
 11
64.488888884366
 21
244.499996945862
 31
0.0
  0
CIRCLE
  5
461
  8
0
 10
97.988891601562
 20
259.5
 30
0.0
 40
2.5
  0
CIRCLE
  5
462
  8
0
 10
117.988891601562
 20
259.5
 30
0.0
 40
2.5
  0
CIRCLE
  5
463
  8
0
 10
137.988891601562
 20
274.5
 30
0.0
 40
9.5
  0
CIRCLE
  5
464
  8
0
 10
137.988891601562
 20
287.5
 30
0.0
 40
2.0
  0
CIRCLE
  5
465
  8
0
 10
137.988891601562
 20
261.5
 30
0.0
 40
2.0
  0
CIRCLE
  5
466
  8
0
 10
153.988891601562
 20
287.5
 30
0.0
 40
2.5
  0
CIRCLE
  5
467
  8
0
 10
121.988891601562
 20
287.5
 30
0.0
 40
2.5
  0
LINE
  5
468
  8
0
 10
119.988891601562
 20
316.5
 30
0.0
 11
96.988891601563
 21
316.499999999999
 31
0.0
  0
LINE
  5
469
  8
0
 10
96.988891601562
 20
316.5
 30
0.0
 11
96.988891601564
 21
291.5
 31
0.0
  0
LINE
  5
46A
  8
0
 10
96.988891601562
 20
291.5
 30
0.0
 11
90.988891601564
 21
266.499999992549
 31
0.0
  0
LINE
  5
46B
  8
0
 10
90.988891601562
 20
266.5
 30
0.0
 11
90.988891601563
 21
244.500000007451
 31
0.0
  0
LINE
  5
46C
  8
0
 10
90.988891601562
 20
244.5
 30
0.0
 11
147.988891601562
 21
244.500000000002
 31
0.0
  0
LINE
  5
46D
  8
0
 10
147.988891601562
 20
244.5
 30
0.0
 11
161.126214381033
 21
285.195954961026
 31
0.0
  0
ARC
  5
46E
  8
0
 10
153.988891601562
 20
287.5
 30
0.0000000000000009
 40
7.5
 50
342.1090681974882
 51
59.19950629159115
  0
LINE
  5
46F
  8
0
 10
157.82926940918
 20
293.942169189453
 30
0.0
 11
119.988892411409
 21
316.500003054136
 31
0.0
  0
CIRCLE
  5
470
  8
0
 10
390.731109619141
 20
302.997100830078
 30
0.0
 40
2.5
  0
CIRCLE
  5
471
  8
0
 10
370.731109619141
 20
302.997100830078
 30
0.0
 40
2.5
  0
CIRCLE
  5
472
  8
0
 10
350.731109619141
 20
287.997100830078
 30
0.0
 40
9.5
  0
CIRCLE
  5
473
  8
0
 10
350.731109619141
 20
274.997100830078
 30
0.0
 40
2.0
  0
CIRCLE
  5
474
  8
0
 10
350.731109619141
 20
300.997100830078
 30
0.0
 40
2.0
  0
LINE
  5
475
  8
0
 10
360.166381835938
 20
271.505432128906
 30
0.0
 11
397.731097067703
 21
292.997108865872
 31
0.0
  0
LINE
  5
476
  8
0
 10
397.731109619141
 20
292.997100830078
 30
0.0
 11
397.731109619141
 21
317.997100830078
 31
0.0
  0
LINE
  5
477
  8
0
 10
397.731109619141
 20
317.997100830078
 30
0.0
 11
340.731109619141
 21
317.997100830078
 31
0.0
  0
LINE
  5
478
  8
0
 10
340.731109619141
 20
317.997100830078
 30
0.0
 11
332.712393507294
 21
294.024195460949
 31
0.0
  0
ARC
  5
479
  8
0
 10
350.731109619141
 20
287.997100830078
 30
0.0000000000000018
 40
19.000000004471
 50
161.505386151663
 51
299.774911228993
  0
CIRCLE
  5
47A
  8
0
 10
351.731109619141
 20
248.997100830078
 30
0.0
 40
2.5
  0
CIRCLE
  5
47B
  8
0
 10
371.731109619141
 20
248.997100830078
 30
0.0
 40
2.5
  0
CIRCLE
  5
47C
  8
0
 10
391.731109619141
 20
263.997100830078
 30
0.0
 40
9.5
  0
CIRCLE
  5
47D
  8
0
 10
391.731109619141
 20
276.997100830078
 30
0.0
 40
2.0
  0
CIRCLE
  5
47E
  8
0
 10
391.731109619141
 20
250.997100830078
 30
0.0
 40
2.0
  0
LINE
  5
47F
  8
0
 10
382.295837402344
 20
280.48876953125
 30
0.0
 11
344.731122170579
 21
258.997092794283
 31
0.0
  0
LINE
  5
480
  8
0
 10
344.731109619141
 20
258.997100830078
 30
0.0
 11
344.731109619142
 21
233.997100830078
 31
0.0
  0
LINE
  5
481
  8
0
 10
344.731109619141
 20
233.997100830078
 30
0.0
 11
401.731109619141
 21
233.997100830081
 31
0.0
  0
LINE
  5
482
  8
0
 10
401.731109619141
 20
233.997100830078
 30
0.0
 11
409.749825730986
 21
257.970006199208
 31
0.0
  0
ARC
  5
483
  8
0
 10
391.731109619141
 20
263.997100830078
 30
0.0000000000000018
 40
19.000000004471
 50
341.5053861516659
 51
119.774911228996
  0
CIRCLE
  5
484
  8
0
 10
345.704071044922
 20
31.197797775269
 30
0.0
 40
2.5
  0
CIRCLE
  5
485
  8
0
 10
345.704071044922
 20
51.197799682617
 30
0.0
 40
2.5
  0
CIRCLE
  5
486
  8
0
 10
330.704071044922
 20
71.197799682617
 30
0.0
 40
9.5
  0
CIRCLE
  5
487
  8
0
 10
317.704071044922
 20
71.197799682617
 30
0.0
 40
2.0
  0
CIRCLE
  5
488
  8
0
 10
343.704071044922
 20
71.197799682617
 30
0.0
 40
2.0
  0
LINE
  5
489
  8
0
 10
314.21240234375
 20
61.762512207031
 30
0.0
 11
335.704079080717
 21
24.197796975266
 31
0.0
  0
LINE
  5
48A
  8
0
 10
335.704071044922
 20
24.197797775269
 30
0.0
 11
360.704071044922
 21
24.19779777527
 31
0.0
  0
LINE
  5
48B
  8
0
 10
360.704071044922
 20
24.197797775269
 30
0.0
 11
360.704071044919
 21
81.197797775269
 31
0.0
  0
LINE
  5
48C
  8
0
 10
360.704071044922
 20
81.197799682617
 30
0.0
 11
336.731165675792
 21
89.216515794462
 31
0.0
  0
ARC
  5
48D
  8
0
 10
330.704071044922
 20
71.197799682617
 30
0.0
 40
19.000000004471
 50
71.50538615166595
 51
209.7749112289949
  0
CIRCLE
  5
48E
  8
0
 10
333.936676025391
 20
135.689636230469
 30
0.0
 40
1.2495
  0
CIRCLE
  5
48F
  8
0
 10
356.936676025391
 20
135.689636230469
 30
0.0
 40
1.2495
  0
CIRCLE
  5
490
  8
0
 10
165.449325561523
 20
184.964996337891
 30
0.0
 40
13.3
  0
CIRCLE
  5
491
  8
0
 10
30.488887786865
 20
273.5
 30
0.0
 40
2.5
  0
ENDSEC
  0
EOF
