  0
SECTION
  2
HEADER
  9
$ACADVER
  1
AC1009
  9
$DWGCODEPAGE
  3
ansi_1252
  9
$INSBASE
 10
0.0
 20
0.0
 30
0.0
  9
$EXTMIN
 10
-0.0000069434980006
 20
0.0
 30
-0.0000000000000018
  9
$EXTMAX
 10
377.936679840089
 20
294.755554530365
 30
0.0
  9
$LIMMIN
 10
0.0
 20
0.0
  9
$LIMMAX
 10
12.0
 20
9.0
  9
$ORTHOMODE
 70
     0
  9
$REGENMODE
 70
     1
  9
$FILLMODE
 70
     1
  9
$QTEXTMODE
 70
     0
  9
$MIRRTEXT
 70
     1
  9
$DRAGMODE
 70
     2
  9
$LTSCALE
 40
1.0
  9
$OSMODE
 70
    37
  9
$ATTMODE
 70
     1
  9
$TEXTSIZE
 40
0.2
  9
$TRACEWID
 40
0.05
  9
$TEXTSTYLE
  7
STANDARD
  9
$CLAYER
  8
DEFAULT
  9
$CELTYPE
  6
BYLAYER
  9
$CECOLOR
 62
   256
  9
$DIMSCALE
 40
1.0
  9
$DIMASZ
 40
0.18
  9
$DIMEXO
 40
0.0625
  9
$DIMDLI
 40
0.38
  9
$DIMRND
 40
0.0
  9
$DIMDLE
 40
0.0
  9
$DIMEXE
 40
0.18
  9
$DIMTP
 40
0.0
  9
$DIMTM
 40
0.0
  9
$DIMTXT
 40
0.18
  9
$DIMCEN
 40
0.09
  9
$DIMTSZ
 40
0.0
  9
$DIMTOL
 70
     0
  9
$DIMLIM
 70
     0
  9
$DIMTIH
 70
     1
  9
$DIMTOH
 70
     1
  9
$DIMSE1
 70
     0
  9
$DIMSE2
 70
     0
  9
$DIMTAD
 70
     0
  9
$DIMZIN
 70
     0
  9
$DIMBLK
  1

  9
$DIMASO
 70
     1
  9
$DIMSHO
 70
     1
  9
$DIMPOST
  1

  9
$DIMAPOST
  1

  9
$DIMALT
 70
     0
  9
$DIMALTD
 70
     2
  9
$DIMALTF
 40
25.4
  9
$DIMLFAC
 40
1.0
  9
$DIMTOFL
 70
     0
  9
$DIMTVP
 40
0.0
  9
$DIMTIX
 70
     0
  9
$DIMSOXD
 70
     0
  9
$DIMSAH
 70
     0
  9
$DIMBLK1
  1

  9
$DIMBLK2
  1

  9
$DIMSTYLE
  2
STANDARD
  9
$DIMCLRD
 70
     0
  9
$DIMCLRE
 70
     0
  9
$DIMCLRT
 70
     0
  9
$DIMTFAC
 40
1.0
  9
$DIMGAP
 40
0.09
  9
$LUNITS
 70
     2
  9
$LUPREC
 70
     3
  9
$SKETCHINC
 40
0.1
  9
$FILLETRAD
 40
0.5
  9
$AUNITS
 70
     0
  9
$AUPREC
 70
     0
  9
$MENU
  1
.
  9
$ELEVATION
 40
0.0
  9
$PELEVATION
 40
0.0
  9
$THICKNESS
 40
0.0
  9
$LIMCHECK
 70
     0
  9
$CHAMFERA
 40
0.5
  9
$CHAMFERB
 40
0.5
  9
$SKPOLY
 70
     0
  9
$TDCREATE
 40
2456596.988527431
  9
$TDUPDATE
 40
2456596.988541794
  9
$TDINDWG
 40
0.0000000116
  9
$TDUSRTIMER
 40
0.0000000116
  9
$USRTIMER
 70
     1
  9
$ANGBASE
 50
0.0
  9
$ANGDIR
 70
     0
  9
$PDMODE
 70
     0
  9
$PDSIZE
 40
0.0
  9
$PLINEWID
 40
0.0
  9
$COORDS
 70
     1
  9
$SPLFRAME
 70
     0
  9
$SPLINETYPE
 70
     6
  9
$SPLINESEGS
 70
     8
  9
$ATTDIA
 70
     0
  9
$ATTREQ
 70
     1
  9
$HANDLING
 70
     1
  9
$HANDSEED
  5
497
  9
$SURFTAB1
 70
     6
  9
$SURFTAB2
 70
     6
  9
$SURFTYPE
 70
     6
  9
$SURFU
 70
     6
  9
$SURFV
 70
     6
  9
$UCSNAME
  2

  9
$UCSORG
 10
0.0
 20
0.0
 30
0.0
  9
$UCSXDIR
 10
1.0
 20
0.0
 30
0.0
  9
$UCSYDIR
 10
0.0
 20
1.0
 30
0.0
  9
$PUCSNAME
  2

  9
$PUCSORG
 10
0.0
 20
0.0
 30
0.0
  9
$PUCSXDIR
 10
1.0
 20
0.0
 30
0.0
  9
$PUCSYDIR
 10
0.0
 20
1.0
 30
0.0
  9
$USERI1
 70
     0
  9
$USERI2
 70
     0
  9
$USERI3
 70
     0
  9
$USERI4
 70
     0
  9
$USERI5
 70
     0
  9
$USERR1
 40
0.0
  9
$USERR2
 40
0.0
  9
$USERR3
 40
0.0
  9
$USERR4
 40
0.0
  9
$USERR5
 40
0.0
  9
$WORLDVIEW
 70
     1
  9
$SHADEDGE
 70
     3
  9
$SHADEDIF
 70
    70
  9
$TILEMODE
 70
     1
  9
$MAXACTVP
 70
    64
  9
$PLIMCHECK
 70
     0
  9
$PEXTMIN
 10
1.000000000000000E+20
 20
1.000000000000000E+20
 30
1.000000000000000E+20
  9
$PEXTMAX
 10
-1.000000000000000E+20
 20
-1.000000000000000E+20
 30
-1.000000000000000E+20
  9
$PLIMMIN
 10
0.0
 20
0.0
  9
$PLIMMAX
 10
12.0
 20
9.0
  9
$UNITMODE
 70
     0
  9
$VISRETAIN
 70
     1
  9
$PLINEGEN
 70
     0
  9
$PSLTSCALE
 70
     1
  0
ENDSEC
  0
SECTION
  2
TABLES
  0
TABLE
  2
VPORT
 70
     1
  0
VPORT
  2
*ACTIVE
 70
     0
 10
0.0
 20
0.0
 11
1.0
 21
1.0
 12
188.9683364482955
 22
147.3777772651825
 13
0.0
 23
0.0
 14
0.5
 24
0.5
 15
0.5
 25
0.5
 16
0.0
 26
0.0
 36
1.0
 17
0.0
 27
0.0
 37
0.0
 40
300.6506656209723
 41
1.282203781997441
 42
50.0
 43
0.0
 44
0.0
 50
0.0
 51
0.0
 71
     0
 72
   100
 73
     1
 74
     3
 75
     0
 76
     0
 77
     0
 78
     0
  0
ENDTAB
  0
TABLE
  2
LTYPE
 70
     1
  0
LTYPE
  2
CONTINUOUS
 70
     0
  3
Solid line
 72
    65
 73
     0
 40
0.0
  0
ENDTAB
  0
TABLE
  2
LAYER
 70
     2
  0
LAYER
  2
0
 70
     0
 62
     7
  6
CONTINUOUS
  0
LAYER
  2
DEFAULT
 70
     0
 62
     7
  6
CONTINUOUS
  0
ENDTAB
  0
TABLE
  2
STYLE
 70
     1
  0
STYLE
  2
STANDARD
 70
     0
 40
0.0
 41
1.0
 50
0.0
 71
     0
 42
0.2
  3
txt
  4

  0
ENDTAB
  0
TABLE
  2
VIEW
 70
     0
  0
ENDTAB
  0
TABLE
  2
UCS
 70
     0
  0
ENDTAB
  0
TABLE
  2
APPID
 70
     1
  0
APPID
  2
ACAD
 70
     0
  0
ENDTAB
  0
TABLE
  2
DIMSTYLE
 70
     1
  0
DIMSTYLE
  2
STANDARD
 70
     0
  3

  4

  5

  6

  7

 40
1.0
 41
0.18
 42
0.0625
 43
0.38
 44
0.18
 45
0.0
 46
0.0
 47
0.0
 48
0.0
140
0.18
141
0.09
142
0.0
143
25.4
144
1.0
145
0.0
146
1.0
147
0.09
 71
     0
 72
     0
 73
     1
 74
     1
 75
     0
 76
     0
 77
     0
 78
     0
170
     0
171
     2
172
     0
173
     0
174
     0
175
     0
176
     0
177
     0
178
     0
  0
ENDTAB
  0
ENDSEC
  0
SECTION
  2
BLOCKS
  0
BLOCK
  8
0
  2
$MODEL_SPACE
 70
     0
 10
0.0
 20
0.0
 30
0.0
  3
$MODEL_SPACE
  1

  0
ENDBLK
  5
21
  8
0
  0
BLOCK
 67
     1
  8
0
  2
$PAPER_SPACE
 70
     0
 10
0.0
 20
0.0
 30
0.0
  3
$PAPER_SPACE
  1

  0
ENDBLK
  5
1D
 67
     1
  8
0
  0
ENDSEC
  0
SECTION
  2
ENTITIES
  0
ARC
  5
41
  8
DEFAULT
 10
44.51742935180701
 20
147.944031092865
 30
0.0
 40
25.746052487135
 50
235.83533834071
 51
304.258435048096
  0
ARC
  5
42
  8
DEFAULT
 10
75.25737380981501
 20
107.606560084564
 30
0.0
 40
49.042756085839
 50
130.228292298619
 51
157.162408473168
  0
ARC
  5
43
  8
DEFAULT
 10
85.999996185303
 20
94.500000331146
 30
0.0
 40
65.987803063838
 50
310.0
 51
130.0
  0
LINE
  5
44
  8
DEFAULT
 10
-0.0000038146969992
 20
66.909195277435
 30
0.0
 11
-0.0000038146969992
 21
0.0
 31
0.0
  0
LINE
  5
45
  8
DEFAULT
 10
50.583850860596
 20
113.549591395599
 30
0.0
 11
-0.0000069434980006
 21
66.909196812774
 31
0.0
  0
ARC
  5
46
  8
DEFAULT
 10
94.445499420166
 20
64.316131922943
 30
0.0
 40
42.951829838644
 50
194.735175420934
 51
220.0326317245859
  0
LINE
  5
47
  8
DEFAULT
 10
-0.0000038146969992
 20
0.0000003311460013
 30
0.0
 11
120.578317353003
 21
0.0000003311460013
 31
0.0
  0
CIRCLE
  5
48
  8
DEFAULT
 10
14.999995058903
 20
37.068178705802
 30
-0.0000000000000009
 40
2.499999956992
  0
CIRCLE
  5
49
  8
DEFAULT
 10
127.381295631063
 20
22.02596591553
 30
-0.0000000000000018
 40
1.999999991808
  0
CIRCLE
  5
4A
  8
DEFAULT
 10
34.999996811991
 20
37.068178705802
 30
0.0
 40
2.499999956992
  0
CIRCLE
  5
4B
  8
DEFAULT
 10
34.999996811991
 20
21.999998979466
 30
-0.0000000000000009
 40
2.499999956992
  0
CIRCLE
  5
4C
  8
DEFAULT
 10
58.61870144994301
 20
103.974038392202
 30
-0.0000000000000009
 40
1.999999991808
  0
CIRCLE
  5
4D
  8
DEFAULT
 10
14.999995058903
 20
21.999998979466
 30
-0.0000000000000009
 40
2.499999956992
  0
CIRCLE
  5
4E
  8
DEFAULT
 10
165.999997389527
 20
37.068178705802
 30
0.0
 40
2.499999956992
  0
CIRCLE
  5
4F
  8
DEFAULT
 10
278.381272795863
 20
22.02596591553
 30
-0.0000000000000018
 40
1.999999991808
  0
CIRCLE
  5
50
  8
DEFAULT
 10
185.999999142615
 20
37.068178705802
 30
0.0
 40
2.499999956992
  0
CIRCLE
  5
51
  8
DEFAULT
 10
185.999999142615
 20
21.999998979466
 30
-0.0000000000000009
 40
2.499999956992
  0
CIRCLE
  5
52
  8
DEFAULT
 10
209.618695391959
 20
103.974038392202
 30
-0.0000000000000009
 40
1.999999991808
  0
CIRCLE
  5
53
  8
DEFAULT
 10
165.999997389527
 20
21.999998979466
 30
-0.0000000000000009
 40
2.499999956992
  0
LINE
  5
54
  8
DEFAULT
 10
120.578319549561
 20
0.0000003311460013
 30
0.0
 11
135.416140585696
 21
12.450410490042
 31
0.0
  0
ARC
  5
55
  8
DEFAULT
 10
91.44711685180701
 20
64.22751650546199
 30
0.0
 40
67.927483744253
 50
310.3378544266939
 51
326.058028909085
  0
ARC
  5
56
  8
DEFAULT
 10
115.214977264405
 20
-6.408843662994999
 30
0.0
 40
46.169812372183
 50
45.10866217114902
 51
51.22662602286301
  0
ARC
  5
57
  8
DEFAULT
 10
124.426067352295
 20
4.949318263275
 30
0.0
 40
31.546365066959
 50
51.35063917330798
 51
62.13005520571102
  0
ARC
  5
58
  8
DEFAULT
 10
129.474452972412
 20
13.999500605804
 30
0.0
 40
21.187231034326
 50
62.75791027333599
 51
75.55043571739998
  0
ARC
  5
59
  8
DEFAULT
 10
130.924663543701
 20
18.969593379242
 30
0.0
 40
16.01332617691
 50
76.13783128467503
 51
96.33061781233495
  0
ARC
  5
5A
  8
DEFAULT
 10
131.035060882569
 20
19.191555354339
 30
0.0
 40
15.805459926474
 50
96.81706793739902
 51
115.941439954402
  0
ARC
  5
5B
  8
DEFAULT
 10
133.066173553467
 20
14.572365138275
 30
0.0
 40
20.848652313465
 50
115.407736538142
 51
128.736569251321
  0
ARC
  5
5C
  8
DEFAULT
 10
94.15687179565501
 20
61.97475466464199
 30
0.0
 40
40.479686539998
 50
283.372950270615
 51
309.711663376837
  0
ARC
  5
5D
  8
DEFAULT
 10
93.92216110229501
 20
62.783470484955
 30
0.0
 40
41.32078165201
 50
255.3368718824709
 51
283.4302152436359
  0
ARC
  5
5E
  8
DEFAULT
 10
94.11034774780302
 20
63.835693690521
 30
0.0
 40
42.386451371712
 50
219.826777587773
 51
255.450822476706
  0
ARC
  5
5F
  8
DEFAULT
 10
93.33090591430701
 20
63.97093233798199
 30
0.0
 40
41.786121348008
 50
165.385193123945
 51
194.66613924908
  0
ARC
  5
60
  8
DEFAULT
 10
91.88351058960001
 20
64.222763392669
 30
0.0
 40
40.322202843332
 50
129.91315666312
 51
165.212509738577
  0
ARC
  5
61
  8
DEFAULT
 10
46.89809799194399
 20
116.130234095794
 30
0.0
 40
28.380906131557
 50
312.335335998012
 51
318.7506569593839
  0
ARC
  5
62
  8
DEFAULT
 10
51.672206878662
 20
111.878250453216
 30
0.0
 40
21.988075703543
 50
318.8785627457219
 51
332.745661273276
  0
ARC
  5
63
  8
DEFAULT
 10
55.85144424438501
 20
109.51702913974
 30
0.0
 40
17.192505395693
 50
333.363031042106
 51
0.4474360970129645
  0
ARC
  5
64
  8
DEFAULT
 10
53.42982101440501
 20
109.457428309662
 30
0.0
 40
19.614561972332
 50
0.5662929955820181
 51
15.94224453715603
  0
ARC
  5
65
  8
DEFAULT
 10
46.12454605102601
 20
107.65602144931
 30
0.0
 40
27.135046412072
 50
15.36282360380498
 51
26.65785845308699
  0
ARC
  5
66
  8
DEFAULT
 10
35.163455963135
 20
102.533264491302
 30
0.0
 40
39.230841156402
 50
26.16186243542
 51
33.17446495461301
  0
LINE
  5
67
  8
DEFAULT
 10
67.99999618530302
 20
124.000000331146
 30
0.0
 11
64.69394823671402
 21
122.476157988405
 31
0.0
  0
LINE
  5
68
  8
DEFAULT
 10
64.693950653076
 20
122.476150843841
 30
0.0
 11
61.437129651822
 21
120.849754370135
 31
0.0
  0
LINE
  5
69
  8
DEFAULT
 10
61.437129974365
 20
120.849762294037
 30
0.0
 11
58.232716210266
 21
119.122399867576
 31
0.0
  0
LINE
  5
6A
  8
DEFAULT
 10
58.23271560669
 20
119.122406337005
 30
0.0
 11
50.58385612472599
 21
113.549597440174
 31
0.0
  0
LINE
  5
6B
  8
DEFAULT
 10
150.999996185303
 20
0.0000003311460013
 30
0.0
 11
271.578317353004
 21
0.0000003311460013
 31
0.0
  0
LINE
  5
6C
  8
DEFAULT
 10
271.578304290772
 20
0.0000003311460013
 30
0.0
 11
286.416125326907
 21
12.450410490042
 31
0.0
  0
ARC
  5
6D
  8
DEFAULT
 10
242.447109222412
 20
64.22751650546199
 30
0.0
 40
67.927483744278
 50
310.3378544266969
 51
326.058028909083
  0
ARC
  5
6E
  8
DEFAULT
 10
266.214992523194
 20
-6.408843662994999
 30
0.0
 40
46.169812372166
 50
45.10866217114796
 51
51.22662602286397
  0
ARC
  5
6F
  8
DEFAULT
 10
275.426082611084
 20
4.949318263275
 30
0.0
 40
31.546365066951
 50
51.35063917330706
 51
62.13005520571203
  0
ARC
  5
70
  8
DEFAULT
 10
280.474452972412
 20
13.999500605804
 30
0.0
 40
21.187231034326
 50
62.75791027333599
 51
75.5504357173999
  0
ARC
  5
71
  8
DEFAULT
 10
281.924678802491
 20
18.969593379242
 30
0.0
 40
16.013326176908
 50
76.13783128467503
 51
96.33061781233597
  0
ARC
  5
72
  8
DEFAULT
 10
282.035060882569
 20
19.191555354339
 30
0.0
 40
15.805459926474
 50
96.81706793739902
 51
115.9414399544021
  0
ARC
  5
73
  8
DEFAULT
 10
284.066188812256
 20
14.572365138275
 30
0.0
 40
20.848652313438
 50
115.4077365381329
 51
128.7365692513299
  0
ARC
  5
74
  8
DEFAULT
 10
245.156856536865
 20
61.97475466464199
 30
0.0
 40
40.47968654
 50
283.372950270615
 51
309.7116633768359
  0
ARC
  5
75
  8
DEFAULT
 10
244.922176361084
 20
62.783470484955
 30
0.0
 40
41.320781652011
 50
255.336871882471
 51
283.430215243636
  0
ARC
  5
76
  8
DEFAULT
 10
245.110347747803
 20
63.835693690521
 30
0.0
 40
42.386451371709
 50
219.826777587771
 51
255.450822476707
  0
ARC
  5
77
  8
DEFAULT
 10
245.445491790772
 20
64.316131922943
 30
0.0
 40
42.951829838649
 50
194.735175420935
 51
220.032631724584
  0
ARC
  5
78
  8
DEFAULT
 10
244.330898284912
 20
63.97093233798199
 30
0.0
 40
41.786121348005
 50
165.385193123945
 51
194.666139249081
  0
ARC
  5
79
  8
DEFAULT
 10
197.898097991944
 20
116.130234095794
 30
0.0
 40
28.380906131557
 50
312.335335998012
 51
318.750656959384
  0
ARC
  5
7A
  8
DEFAULT
 10
202.672206878662
 20
111.878250453216
 30
0.0
 40
21.988075703546
 50
318.878562745723
 51
332.7456612732749
  0
ARC
  5
7B
  8
DEFAULT
 10
206.851436614991
 20
109.51702913974
 30
0.0
 40
17.192505395705
 50
333.363031042115
 51
0.4474360970039854
  0
ARC
  5
7C
  8
DEFAULT
 10
204.429821014405
 20
109.457428309662
 30
0.0
 40
19.614561972336
 50
0.5662929955839785
 51
15.94224453715499
  0
ARC
  5
7D
  8
DEFAULT
 10
197.124538421631
 20
107.65602144931
 30
0.0
 40
27.135046412065
 50
15.362823603803
 51
26.65785845308801
  0
ARC
  5
7E
  8
DEFAULT
 10
186.16346359253
 20
102.533264491302
 30
0.0
 40
39.23084115642
 50
26.16186243542197
 51
33.17446495461197
  0
LINE
  5
7F
  8
DEFAULT
 10
218.999996185303
 20
124.000000331146
 30
0.0
 11
215.693948236714
 21
122.476157988405
 31
0.0
  0
LINE
  5
80
  8
DEFAULT
 10
215.693950653076
 20
122.476150843841
 30
0.0
 11
212.437129651822
 21
120.849754370135
 31
0.0
  0
LINE
  5
81
  8
DEFAULT
 10
212.437129974365
 20
120.849762294037
 30
0.0
 11
209.232716210266
 21
119.122399867576
 31
0.0
  0
LINE
  5
82
  8
DEFAULT
 10
209.232707977295
 20
119.122406337005
 30
0.0
 11
201.583848495332
 21
113.549597440174
 31
0.0
  0
LINE
  5
83
  8
DEFAULT
 10
201.583858489991
 20
113.549591395599
 30
0.0
 11
151.000000685897
 21
66.909196812774
 31
0.0
  0
LINE
  5
84
  8
DEFAULT
 10
150.999996185303
 20
66.909195277435
 30
0.0
 11
150.999996185303
 21
0.0
 31
0.0
  0
LINE
  5
85
  8
DEFAULT
 10
11.499996185303
 20
4.618013713104002
 30
0.0
 11
18.499996185303
 21
4.618013713104002
 31
0.0
  0
LINE
  5
86
  8
DEFAULT
 10
18.499996185303
 20
4.618013713104002
 30
0.0
 11
18.499996185303
 21
12.018013704163
 31
0.0
  0
LINE
  5
87
  8
DEFAULT
 10
18.499996185303
 20
12.018013331634
 30
0.0
 11
11.499996185303
 21
12.018013331634
 31
0.0
  0
LINE
  5
88
  8
DEFAULT
 10
11.499996185303
 20
12.018013331634
 30
0.0
 11
11.499996185303
 21
4.618013340575001
 31
0.0
  0
LINE
  5
89
  8
DEFAULT
 10
31.499996185303
 20
4.618013713104002
 30
0.0
 11
38.499996185303
 21
4.618013713104002
 31
0.0
  0
LINE
  5
8A
  8
DEFAULT
 10
38.499996185303
 20
4.618013713104002
 30
0.0
 11
38.499996185303
 21
12.018013704163
 31
0.0
  0
LINE
  5
8B
  8
DEFAULT
 10
38.499996185303
 20
12.018013331634
 30
0.0
 11
31.499996185303
 21
12.018013331634
 31
0.0
  0
LINE
  5
8C
  8
DEFAULT
 10
31.499996185303
 20
12.018013331634
 30
0.0
 11
31.499996185303
 21
4.618013340575001
 31
0.0
  0
LINE
  5
8D
  8
DEFAULT
 10
162.499996185303
 20
4.618013713104002
 30
0.0
 11
169.499996185303
 21
4.618013713104002
 31
0.0
  0
LINE
  5
8E
  8
DEFAULT
 10
169.499996185303
 20
4.618013713104002
 30
0.0
 11
169.499996185303
 21
12.018013704163
 31
0.0
  0
LINE
  5
8F
  8
DEFAULT
 10
169.499996185303
 20
12.018013331634
 30
0.0
 11
162.499996185303
 21
12.018013331634
 31
0.0
  0
LINE
  5
90
  8
DEFAULT
 10
162.499996185303
 20
12.018013331634
 30
0.0
 11
162.499996185303
 21
4.618013340575001
 31
0.0
  0
LINE
  5
91
  8
DEFAULT
 10
182.499996185303
 20
4.618013713104002
 30
0.0
 11
189.499996185303
 21
4.618013713104002
 31
0.0
  0
LINE
  5
92
  8
DEFAULT
 10
189.499996185303
 20
4.618013713104002
 30
0.0
 11
189.499996185303
 21
12.018013704163
 31
0.0
  0
LINE
  5
93
  8
DEFAULT
 10
189.499996185303
 20
12.018013331634
 30
0.0
 11
182.499996185303
 21
12.018013331634
 31
0.0
  0
LINE
  5
94
  8
DEFAULT
 10
182.499996185303
 20
12.018013331634
 30
0.0
 11
182.499996185303
 21
4.618013340575001
 31
0.0
  0
LINE
  5
95
  8
DEFAULT
 10
11.499996185303
 20
25.799999568207
 30
0.0
 11
18.499996185303
 21
25.799999568207
 31
0.0
  0
LINE
  5
96
  8
DEFAULT
 10
18.499996185303
 20
25.799999568207
 30
0.0
 11
18.499996185303
 21
33.199999559266
 31
0.0
  0
LINE
  5
97
  8
DEFAULT
 10
18.499996185303
 20
33.200001094085
 30
0.0
 11
11.499996185303
 21
33.200001094085
 31
0.0
  0
LINE
  5
98
  8
DEFAULT
 10
11.499996185303
 20
33.200001094085
 30
0.0
 11
11.499996185303
 21
25.800001103026
 31
0.0
  0
LINE
  5
99
  8
DEFAULT
 10
31.499996185303
 20
25.799999568207
 30
0.0
 11
38.499996185303
 21
25.799999568207
 31
0.0
  0
LINE
  5
9A
  8
DEFAULT
 10
38.499996185303
 20
25.799999568207
 30
0.0
 11
38.499996185303
 21
33.199999559266
 31
0.0
  0
LINE
  5
9B
  8
DEFAULT
 10
38.499996185303
 20
33.200001094085
 30
0.0
 11
31.499996185303
 21
33.200001094085
 31
0.0
  0
LINE
  5
9C
  8
DEFAULT
 10
31.499996185303
 20
33.200001094085
 30
0.0
 11
31.499996185303
 21
25.800001103026
 31
0.0
  0
LINE
  5
9D
  8
DEFAULT
 10
162.499996185303
 20
25.799999568207
 30
0.0
 11
169.499996185303
 21
25.799999568207
 31
0.0
  0
LINE
  5
9E
  8
DEFAULT
 10
169.499996185303
 20
25.799999568207
 30
0.0
 11
169.499996185303
 21
33.199999559266
 31
0.0
  0
LINE
  5
9F
  8
DEFAULT
 10
169.499996185303
 20
33.200001094085
 30
0.0
 11
162.499996185303
 21
33.200001094085
 31
0.0
  0
LINE
  5
A0
  8
DEFAULT
 10
162.499996185303
 20
33.200001094085
 30
0.0
 11
162.499996185303
 21
25.800001103026
 31
0.0
  0
LINE
  5
A1
  8
DEFAULT
 10
182.499996185303
 20
25.799999568207
 30
0.0
 11
189.499996185303
 21
25.799999568207
 31
0.0
  0
LINE
  5
A2
  8
DEFAULT
 10
189.499996185303
 20
25.799999568207
 30
0.0
 11
189.499996185303
 21
33.199999559266
 31
0.0
  0
LINE
  5
A3
  8
DEFAULT
 10
189.499996185303
 20
33.200001094085
 30
0.0
 11
182.499996185303
 21
33.200001094085
 31
0.0
  0
LINE
  5
A4
  8
DEFAULT
 10
182.499996185303
 20
33.200001094085
 30
0.0
 11
182.499996185303
 21
25.800001103026
 31
0.0
  0
ARC
  5
A5
  8
DEFAULT
 10
107.356014251709
 20
69.962761256439
 30
0.0
 40
33.468959316645
 50
272.375671888685
 51
308.9943236272379
  0
ARC
  5
A6
  8
DEFAULT
 10
85.233951568604
 20
93.857216212494
 30
0.0
 40
42.0
 50
311.364314150667
 51
128.635685849335
  0
ARC
  5
A7
  8
DEFAULT
 10
128.579189300537
 20
46.515236232025
 30
0.0
 40
22.210670681312
 50
134.580001499046
 51
206.737514397644
  0
LINE
  5
A8
  8
DEFAULT
 10
118.864543914795
 20
50.240448329193
 30
0.0
 11
118.933565018745
 21
50.24216960806299
 31
0.0
  0
LINE
  5
A9
  8
DEFAULT
 10
118.933574676514
 20
50.24217257235699
 30
0.0
 11
119.002495241686
 21
50.246275167603
 31
0.0
  0
LINE
  5
AA
  8
DEFAULT
 10
119.00248336792
 20
50.246277186615
 30
0.0
 11
119.071221260375
 21
50.25275620909599
 31
0.0
  0
LINE
  5
AB
  8
DEFAULT
 10
119.071224212647
 20
50.25275454257199
 30
0.0
 11
119.139697516138
 21
50.261602271115
 31
0.0
  0
LINE
  5
AC
  8
DEFAULT
 10
119.139705657959
 20
50.261597010834
 30
0.0
 11
119.207832771558
 21
50.272802901433
 31
0.0
  0
LINE
  5
AD
  8
DEFAULT
 10
119.207820892334
 20
50.2728045914
 30
0.0
 11
119.275520627672
 21
50.286355289784
 31
0.0
  0
LINE
  5
AE
  8
DEFAULT
 10
119.275524139405
 20
50.28635439608699
 30
0.0
 11
119.342715817426
 21
50.302233753633
 31
0.0
  0
LINE
  5
AF
  8
DEFAULT
 10
119.342723846436
 20
50.302238795501
 30
0.0
 11
119.409327393549
 21
50.32042788847799
 31
0.0
  0
LINE
  5
B0
  8
DEFAULT
 10
119.409328460694
 20
50.32042727206399
 30
0.0
 11
119.475264504194
 21
50.34090442418599
 31
0.0
  0
LINE
  5
B1
  8
DEFAULT
 10
119.475261688233
 20
50.340904566986
 30
0.0
 11
119.54045165089
 21
50.363645375243
 31
0.0
  0
LINE
  5
B2
  8
DEFAULT
 10
119.540447235108
 20
50.36364016268899
 30
0.0
 11
119.604813428811
 21
50.388617526432
 31
0.0
  0
LINE
  5
B3
  8
DEFAULT
 10
119.604808807373
 20
50.38861880038399
 30
0.0
 11
119.668274525714
 21
50.415802953615
 31
0.0
  0
LINE
  5
B4
  8
DEFAULT
 10
119.668285369873
 20
50.41580233309899
 30
0.0
 11
119.730774979556
 21
50.44516087995
 31
0.0
  0
LINE
  5
B5
  8
DEFAULT
 10
119.730770111084
 20
50.445160243255
 30
0.0
 11
119.792209142059
 21
50.476658196591
 31
0.0
  0
LINE
  5
B6
  8
DEFAULT
 10
119.79220199585
 20
50.476662013275
 30
0.0
 11
119.852517230063
 21
50.510261836388
 31
0.0
  0
LINE
  5
B7
  8
DEFAULT
 10
119.852519989014
 20
50.510261866791
 30
0.0
 11
119.911639547661
 21
50.545923518138
 31
0.0
  0
LINE
  5
B8
  8
DEFAULT
 10
119.911647796631
 20
50.54592165683
 30
0.0
 11
119.969501225817
 21
50.58360263774699
 31
0.0
  0
LINE
  5
B9
  8
DEFAULT
 10
119.969493865967
 20
50.58360323641899
 30
0.0
 11
120.026012220666
 21
50.62325864176999
 31
0.0
  0
LINE
  5
BA
  8
DEFAULT
 10
120.026012420655
 20
50.623260829193
 30
0.0
 11
120.081128346876
 21
50.664843400881
 31
0.0
  0
LINE
  5
BB
  8
DEFAULT
 10
120.081127166748
 20
50.664841029388
 30
0.0
 11
120.134774981801
 21
50.708301212677
 31
0.0
  0
LINE
  5
BC
  8
DEFAULT
 10
120.134777069092
 20
50.708305690033
 30
0.0
 11
123.198954841568
 21
53.279456128779
 31
0.0
  0
LINE
  5
BD
  8
DEFAULT
 10
123.198955535889
 20
53.27944979403699
 30
0.0
 11
123.251071306658
 21
53.324735796604
 31
0.0
  0
LINE
  5
BE
  8
DEFAULT
 10
123.251079559326
 20
53.32473787997399
 30
0.0
 11
123.301601178464
 21
53.371795733635
 31
0.0
  0
LINE
  5
BF
  8
DEFAULT
 10
123.301601409912
 20
53.371795985443
 30
0.0
 11
123.350468669849
 21
53.420569610464
 31
0.0
  0
LINE
  5
C0
  8
DEFAULT
 10
123.350460052491
 20
53.420570704681
 30
0.0
 11
123.397614717189
 21
53.471001976612
 31
0.0
  0
LINE
  5
C1
  8
DEFAULT
 10
123.397609710694
 20
53.471001002533
 30
0.0
 11
123.442995585049
 21
53.523029821474
 31
0.0
  0
LINE
  5
C2
  8
DEFAULT
 10
123.443004608155
 20
53.523033473236
 30
0.0
 11
123.486567604963
 21
53.57659783545999
 31
0.0
  0
LINE
  5
C3
  8
DEFAULT
 10
123.486568450928
 20
53.576591822845
 30
0.0
 11
123.528256655343
 21
53.63162789469
 31
0.0
  0
LINE
  5
C4
  8
DEFAULT
 10
123.528255462647
 20
53.631630274994
 30
0.0
 11
123.568019194047
 21
53.68807246893199
 31
0.0
  0
LINE
  5
C5
  8
DEFAULT
 10
123.568019866944
 20
53.688072535736
 30
0.0
 11
123.605811738139
 21
53.74585358853899
 31
0.0
  0
LINE
  5
C6
  8
DEFAULT
 10
123.605815887451
 20
53.745849940521
 30
0.0
 11
123.641590861155
 21
53.804900993416
 31
0.0
  0
LINE
  5
C7
  8
DEFAULT
 10
123.641582489014
 20
53.804901454193
 30
0.0
 11
123.675297931513
 21
53.865152134924
 31
0.0
  0
LINE
  5
C8
  8
DEFAULT
 10
123.675304412842
 20
53.865158412201
 30
0.0
 11
123.706920144807
 21
53.92653691889299
 31
0.0
  0
LINE
  5
C9
  8
DEFAULT
 10
123.70692062378
 20
53.926536891205
 30
0.0
 11
123.736398968145
 21
53.988970077932
 31
0.0
  0
LINE
  5
CA
  8
DEFAULT
 10
123.736400604248
 20
53.98896822665399
 30
0.0
 11
123.763706431115
 21
54.05238169060699
 31
0.0
  0
LINE
  5
CB
  8
DEFAULT
 10
123.763698577881
 20
54.052383753998
 30
0.0
 11
123.788799346378
 21
54.116701924154
 31
0.0
  0
LINE
  5
CC
  8
DEFAULT
 10
123.788799285889
 20
54.116699549896
 30
0.0
 11
123.811665082957
 21
54.181845777077
 31
0.0
  0
LINE
  5
CD
  8
DEFAULT
 10
123.811672210694
 20
54.181846949798
 30
0.0
 11
123.832275786729
 21
54.247743598013
 31
0.0
  0
LINE
  5
CE
  8
DEFAULT
 10
123.832271575928
 20
54.247742030365
 30
0.0
 11
123.850588377261
 21
54.314310569333
 31
0.0
  0
LINE
  5
CF
  8
DEFAULT
 10
123.850582122803
 20
54.31430849765
 30
0.0
 11
123.866590320955
 21
54.381469596386
 31
0.0
  0
LINE
  5
D0
  8
DEFAULT
 10
123.86658859253
 20
54.381470057708
 30
0.0
 11
123.880269110228
 21
54.449143679061
 31
0.0
  0
LINE
  5
D1
  8
DEFAULT
 10
123.880275726319
 20
54.449142787201
 30
0.0
 11
123.891612260232
 21
54.517248283236
 31
0.0
  0
LINE
  5
D2
  8
DEFAULT
 10
123.891613006592
 20
54.517250392181
 30
0.0
 11
123.900592046759
 21
54.585706600294
 31
0.0
  0
LINE
  5
D3
  8
DEFAULT
 10
123.900585174561
 20
54.58570894931
 30
0.0
 11
123.907196020489
 21
54.654434288942
 31
0.0
  0
LINE
  5
D4
  8
DEFAULT
 10
123.907207489014
 20
54.654434535248
 30
0.0
 11
123.911442262434
 21
54.72334710511299
 31
0.0
  0
LINE
  5
D5
  8
DEFAULT
 10
123.911434173584
 20
54.72334322665399
 30
0.0
 11
123.913287827836
 21
54.792360902342
 31
0.0
  0
LINE
  5
D6
  8
DEFAULT
 10
123.91329574585
 20
54.792358729584
 30
0.0
 11
123.912766071899
 21
54.86139926142499
 31
0.0
  0
LINE
  5
D7
  8
DEFAULT
 10
123.912761688233
 20
54.861404750091
 30
0.0
 11
123.909849317301
 21
54.93038586118
 31
0.0
  0
LINE
  5
D8
  8
DEFAULT
 10
123.909847259522
 20
54.930382106048
 30
0.0
 11
123.904555662337
 21
54.99922159028999
 31
0.0
  0
LINE
  5
D9
  8
DEFAULT
 10
123.904552459717
 20
54.99922213290399
 30
0.0
 11
123.896887942376
 21
55.067837952985
 31
0.0
  0
LINE
  5
DA
  8
DEFAULT
 10
123.896892547608
 20
55.067840907318
 30
0.0
 11
123.88686424406
 21
55.136151292468
 31
0.0
  0
LINE
  5
DB
  8
DEFAULT
 10
123.886867523194
 20
55.136146876556
 30
0.0
 11
123.874487384359
 21
55.204070419999
 31
0.0
  0
LINE
  5
DC
  8
DEFAULT
 10
123.874477386475
 20
55.204071376068
 30
0.0
 11
123.859760165998
 21
55.271527132033
 31
0.0
  0
LINE
  5
DD
  8
DEFAULT
 10
123.859767913819
 20
55.271530482513
 30
0.0
 11
123.84273115049
 21
55.338438062702
 31
0.0
  0
LINE
  5
DE
  8
DEFAULT
 10
123.842723846436
 20
55.338432643158
 30
0.0
 11
123.823387843287
 21
55.404712312542
 31
0.0
  0
LINE
  5
DF
  8
DEFAULT
 10
123.823390960694
 20
55.404716822845
 30
0.0
 11
123.801778760806
 21
55.47028959469
 31
0.0
  0
LINE
  5
E0
  8
DEFAULT
 10
123.801784515381
 20
55.470291468841
 30
0.0
 11
123.777921874421
 21
55.535079198836
 31
0.0
  0
LINE
  5
E1
  8
DEFAULT
 10
123.777919769287
 20
55.535080287201
 30
0.0
 11
123.751835124816
 21
55.59900576658299
 31
0.0
  0
LINE
  5
E2
  8
DEFAULT
 10
123.751827239991
 20
55.598999354584
 30
0.0
 11
123.723551677571
 21
55.661986402151
 31
0.0
  0
LINE
  5
E3
  8
DEFAULT
 10
123.723552703858
 20
55.661987635834
 30
0.0
 11
123.693119920012
 21
55.72396118873199
 31
0.0
  0
LINE
  5
E4
  8
DEFAULT
 10
123.693126678467
 20
55.723961207611
 30
0.0
 11
123.660572940518
 21
55.78484741078499
 31
0.0
  0
LINE
  5
E5
  8
DEFAULT
 10
123.660564422608
 20
55.784851405365
 30
0.0
 11
123.625928525461
 21
55.844577699577
 31
0.0
  0
LINE
  5
E6
  8
DEFAULT
 10
123.625942230225
 20
55.844574305755
 30
0.0
 11
123.589265450134
 21
55.903069514051
 31
0.0
  0
LINE
  5
E7
  8
DEFAULT
 10
123.589260101319
 20
55.903068873626
 30
0.0
 11
123.550586146695
 21
55.96026328616099
 31
0.0
  0
LINE
  5
E8
  8
DEFAULT
 10
123.550579071045
 20
55.96026644442699
 30
0.0
 11
123.509954030372
 21
56.016091901539
 31
0.0
  0
LINE
  5
E9
  8
DEFAULT
 10
123.509960174561
 20
56.01609072421199
 30
0.0
 11
123.467432461466
 21
56.07048069764799
 31
0.0
  0
LINE
  5
EA
  8
DEFAULT
 10
123.467433929444
 20
56.070480677826
 30
0.0
 11
123.423054225007
 21
56.123370350027
 31
0.0
  0
LINE
  5
EB
  8
DEFAULT
 10
123.423046112061
 20
56.123367640716
 30
0.0
 11
123.376867304414
 21
56.174693982061
 31
0.0
  0
LINE
  5
EC
  8
DEFAULT
 10
123.376873016358
 20
56.174698207123
 30
0.0
 11
123.328950137659
 21
56.224400051039
 31
0.0
  0
LINE
  5
ED
  8
DEFAULT
 10
123.328945159912
 20
56.22439608309899
 30
0.0
 11
123.279335320763
 21
56.272414198961
 31
0.0
  0
LINE
  5
EE
  8
DEFAULT
 10
123.27933883667
 20
56.27241549227899
 30
0.0
 11
123.228101158052
 21
56.318692655991
 31
0.0
  0
LINE
  5
EF
  8
DEFAULT
 10
123.228099822998
 20
56.318695399505
 30
0.0
 11
123.175295365821
 21
56.363176461696
 31
0.0
  0
LINE
  5
F0
  8
DEFAULT
 10
123.175304412842
 20
56.363174769623
 30
0.0
 11
123.120996105175
 21
56.40580672137
 31
0.0
  0
LINE
  5
F1
  8
DEFAULT
 10
123.12098312378
 20
56.405807826263
 30
0.0
 11
123.06523568586
 21
56.446539862265
 31
0.0
  0
LINE
  5
F2
  8
DEFAULT
 10
123.065242767334
 20
56.446541163666
 30
0.0
 11
123.008122634437
 21
56.485324742784
 31
0.0
  0
LINE
  5
F3
  8
DEFAULT
 10
123.008129119873
 20
56.485321376068
 30
0.0
 11
122.949704363141
 21
56.522110279179
 31
0.0
  0
LINE
  5
F4
  8
DEFAULT
 10
122.949703216553
 20
56.522110316498
 30
0.0
 11
122.890043461871
 21
56.556860701571
 31
0.0
  0
LINE
  5
F5
  8
DEFAULT
 10
122.890041351319
 20
56.55686220858699
 30
0.0
 11
122.829217696345
 21
56.589532662932
 31
0.0
  0
LINE
  5
F6
  8
DEFAULT
 10
122.829219818115
 20
56.58953127597
 30
0.0
 11
122.767304747549
 21
56.620082865588
 31
0.0
  0
LINE
  5
F7
  8
DEFAULT
 10
122.7672996521
 20
56.620087001068
 30
0.0
 11
122.7043669513
 21
56.648483317052
 31
0.0
  0
LINE
  5
F8
  8
DEFAULT
 10
122.704372406006
 20
56.648475978119
 30
0.0
 11
122.640497073062
 21
56.674683180044
 31
0.0
  0
LINE
  5
F9
  8
DEFAULT
 10
122.640499114991
 20
56.674682948334
 30
0.0
 11
122.575757271344
 21
56.698669804581
 31
0.0
  0
LINE
  5
FA
  8
DEFAULT
 10
122.575756072998
 20
56.69867739413399
 30
0.0
 11
122.510224872727
 21
56.720415319114
 31
0.0
  0
LINE
  5
FB
  8
DEFAULT
 10
122.510219573975
 20
56.72041353915399
 30
0.0
 11
122.443977111849
 21
56.73987662736999
 31
0.0
  0
LINE
  5
FC
  8
DEFAULT
 10
122.443981170655
 20
56.739876124603
 30
0.0
 11
122.377106389068
 21
56.75704118152599
 31
0.0
  0
LINE
  5
FD
  8
DEFAULT
 10
122.377101898194
 20
56.757042262298
 30
0.0
 11
122.309674493087
 21
56.771888832005
 31
0.0
  0
LINE
  5
FE
  8
DEFAULT
 10
122.309673309326
 20
56.771889064056
 30
0.0
 11
122.241773635213
 21
56.784399453609
 31
0.0
  0
LINE
  5
FF
  8
DEFAULT
 10
122.241771697998
 20
56.784393641693
 30
0.0
 11
122.173480672203
 21
56.794552942224
 31
0.0
  0
LINE
  5
100
  8
DEFAULT
 10
122.173488616944
 20
56.794555995208
 30
0.0
 11
122.104887623173
 21
56.80235209968799
 31
0.0
  0
LINE
  5
101
  8
DEFAULT
 10
122.104885101319
 20
56.80235323641899
 30
0.0
 11
122.036055892672
 21
56.80777685408199
 31
0.0
  0
LINE
  5
102
  8
DEFAULT
 10
122.036052703858
 20
56.807777735931
 30
0.0
 11
121.967077305405
 21
56.81082240334899
 31
0.0
  0
LINE
  5
103
  8
DEFAULT
 10
121.967082977295
 20
56.81082186434899
 30
0.0
 11
121.898043588321
 21
56.811483953135
 31
0.0
  0
LINE
  5
104
  8
DEFAULT
 10
121.898036956787
 20
56.811485621673
 30
0.0
 11
121.829015852837
 21
56.80976434280299
 31
0.0
  0
LINE
  5
105
  8
DEFAULT
 10
121.829021453858
 20
56.80976137850899
 30
0.0
 11
121.760100888685
 21
56.805658783263
 31
0.0
  0
LINE
  5
106
  8
DEFAULT
 10
121.760097503662
 20
56.805656764251
 30
0.0
 11
121.691359611208
 21
56.79917774177
 31
0.0
  0
LINE
  5
107
  8
DEFAULT
 10
121.691356658936
 20
56.79917940829399
 30
0.0
 11
121.622883355444
 21
56.790331679752
 31
0.0
  0
LINE
  5
108
  8
DEFAULT
 10
121.622890472412
 20
56.790329310638
 30
0.0
 11
121.554763358813
 21
56.779123420039
 31
0.0
  0
LINE
  5
109
  8
DEFAULT
 10
121.554759979248
 20
56.779129359466
 30
0.0
 11
121.487060243911
 21
56.765578661082
 31
0.0
  0
LINE
  5
10A
  8
DEFAULT
 10
121.487056732178
 20
56.76557192538399
 30
0.0
 11
121.419865054156
 21
56.74969256783899
 31
0.0
  0
LINE
  5
10B
  8
DEFAULT
 10
121.419872283936
 20
56.749695155365
 30
0.0
 11
121.353268736822
 21
56.73150606238799
 31
0.0
  0
LINE
  5
10C
  8
DEFAULT
 10
121.353267669678
 20
56.73150667880199
 30
0.0
 11
121.287331626178
 21
56.711029526681
 31
0.0
  0
LINE
  5
10D
  8
DEFAULT
 10
121.287334442139
 20
56.71102938388
 30
0.0
 11
121.222144479482
 21
56.68828857562299
 31
0.0
  0
LINE
  5
10E
  8
DEFAULT
 10
121.222133636475
 20
56.688286158783
 30
0.0
 11
121.157767442771
 21
56.66330879504
 31
0.0
  0
LINE
  5
10F
  8
DEFAULT
 10
121.157772064209
 20
56.66331515048199
 30
0.0
 11
121.094306345868
 21
56.636130997251
 31
0.0
  0
LINE
  5
110
  8
DEFAULT
 10
121.094310760498
 20
56.636123988373
 30
0.0
 11
121.031821150816
 21
56.606765441522
 31
0.0
  0
LINE
  5
111
  8
DEFAULT
 10
121.031810760498
 20
56.606766078216
 30
0.0
 11
120.970371729523
 21
56.57526812488099
 31
0.0
  0
LINE
  5
112
  8
DEFAULT
 10
120.970378875733
 20
56.575271937591
 30
0.0
 11
120.910063641519
 21
56.541672114478
 31
0.0
  0
LINE
  5
113
  8
DEFAULT
 10
120.910060882569
 20
56.541672084076
 30
0.0
 11
120.850941323922
 21
56.506010432728
 31
0.0
  0
LINE
  5
114
  8
DEFAULT
 10
120.850948333741
 20
56.50601229403699
 30
0.0
 11
120.793094904555
 21
56.46833131311899
 31
0.0
  0
LINE
  5
115
  8
DEFAULT
 10
120.793087005615
 20
56.46833071444699
 30
0.0
 11
120.736568650916
 21
56.42867530909599
 31
0.0
  0
LINE
  5
116
  8
DEFAULT
 10
120.736568450928
 20
56.428673121673
 30
0.0
 11
120.681452524706
 21
56.387090549986
 31
0.0
  0
LINE
  5
117
  8
DEFAULT
 10
120.681453704834
 20
56.387092921478
 30
0.0
 11
120.627805889781
 21
56.34363273819
 31
0.0
  0
LINE
  5
118
  8
DEFAULT
 10
120.627803802491
 20
56.343628260834
 30
0.0
 11
117.563626030015
 21
53.772477822087
 31
0.0
  0
LINE
  5
119
  8
DEFAULT
 10
117.563625335694
 20
53.772476527435
 30
0.0
 11
117.511509564924
 21
53.72719052486799
 31
0.0
  0
LINE
  5
11A
  8
DEFAULT
 10
117.511516571045
 20
53.72719607089199
 30
0.0
 11
117.460994951908
 21
53.680138217231
 31
0.0
  0
LINE
  5
11B
  8
DEFAULT
 10
117.460994720459
 20
53.680137965423
 30
0.0
 11
117.412127460523
 21
53.631364340402
 31
0.0
  0
LINE
  5
11C
  8
DEFAULT
 10
117.412120819092
 20
53.631363246185
 30
0.0
 11
117.364966154393
 21
53.580931974254
 31
0.0
  0
LINE
  5
11D
  8
DEFAULT
 10
117.364971160889
 20
53.580932948334
 30
0.0
 11
117.319585286533
 21
53.528904129392
 31
0.0
  0
LINE
  5
11E
  8
DEFAULT
 10
117.319576263428
 20
53.52890047763
 30
0.0
 11
117.27601326662
 21
53.47533611540599
 31
0.0
  0
LINE
  5
11F
  8
DEFAULT
 10
117.276027679444
 20
53.475334498626
 30
0.0
 11
117.234339475029
 21
53.420298426782
 31
0.0
  0
LINE
  5
120
  8
DEFAULT
 10
117.234325408936
 20
53.420303675873
 30
0.0
 11
117.194561677536
 21
53.36386148193399
 31
0.0
  0
LINE
  5
121
  8
DEFAULT
 10
117.194561004639
 20
53.36386141513
 30
0.0
 11
117.156769133443
 21
53.306080362328
 31
0.0
  0
LINE
  5
122
  8
DEFAULT
 10
117.15678024292
 20
53.306076380951
 30
0.0
 11
117.121005269217
 21
53.247025328056
 31
0.0
  0
LINE
  5
123
  8
DEFAULT
 10
117.120998382569
 20
53.24702486727899
 30
0.0
 11
117.087282940069
 21
53.18677418654799
 31
0.0
  0
LINE
  5
124
  8
DEFAULT
 10
117.08729171753
 20
53.186775538666
 30
0.0
 11
117.055675985564
 21
53.125397031974
 31
0.0
  0
LINE
  5
125
  8
DEFAULT
 10
117.055675506592
 20
53.12539705966199
 30
0.0
 11
117.026197162226
 21
53.062963872935
 31
0.0
  0
LINE
  5
126
  8
DEFAULT
 10
117.026195526123
 20
53.06296572421199
 30
0.0
 11
116.998889699257
 21
52.99955226025899
 31
0.0
  0
LINE
  5
127
  8
DEFAULT
 10
116.998882293701
 20
52.999550196869
 30
0.0
 11
116.973781525204
 21
52.935232026712
 31
0.0
  0
LINE
  5
128
  8
DEFAULT
 10
116.973781585694
 20
52.93523440097
 30
0.0
 11
116.950915788626
 21
52.870088173789
 31
0.0
  0
LINE
  5
129
  8
DEFAULT
 10
116.950923919678
 20
52.870087001068
 30
0.0
 11
116.930320343642
 21
52.804190352853
 31
0.0
  0
LINE
  5
12A
  8
DEFAULT
 10
116.930309295655
 20
52.804191920501
 30
0.0
 11
116.911992494322
 21
52.737623381533
 31
0.0
  0
LINE
  5
12B
  8
DEFAULT
 10
116.91199874878
 20
52.737625453216
 30
0.0
 11
116.895990550628
 21
52.670464354481
 31
0.0
  0
LINE
  5
12C
  8
DEFAULT
 10
116.895992279053
 20
52.670463893158
 30
0.0
 11
116.882311761355
 21
52.60279027180499
 31
0.0
  0
LINE
  5
12D
  8
DEFAULT
 10
116.882305145264
 20
52.602783534271
 30
0.0
 11
116.870968611351
 21
52.534678038235
 31
0.0
  0
LINE
  5
12E
  8
DEFAULT
 10
116.870967864991
 20
52.534683558685
 30
0.0
 11
116.861988824824
 21
52.46622735057299
 31
0.0
  0
LINE
  5
12F
  8
DEFAULT
 10
116.861995697022
 20
52.466225001556
 30
0.0
 11
116.855384851094
 21
52.397499661924
 31
0.0
  0
LINE
  5
130
  8
DEFAULT
 10
116.855388641358
 20
52.397499415619
 30
0.0
 11
116.851153867938
 21
52.32858684575299
 31
0.0
  0
LINE
  5
131
  8
DEFAULT
 10
116.851146697998
 20
52.32859072421199
 30
0.0
 11
116.849293043747
 21
52.259573048525
 31
0.0
  0
LINE
  5
132
  8
DEFAULT
 10
116.849300384522
 20
52.259567591888
 30
0.0
 11
116.849830058473
 21
52.190527060047
 31
0.0
  0
LINE
  5
133
  8
DEFAULT
 10
116.84981918335
 20
52.190529200775
 30
0.0
 11
116.852731554281
 21
52.121548089686
 31
0.0
  0
LINE
  5
134
  8
DEFAULT
 10
116.852733612061
 20
52.121551844818
 30
0.0
 11
116.858025209245
 21
52.052712360576
 31
0.0
  0
LINE
  5
135
  8
DEFAULT
 10
116.858028411865
 20
52.05271181796199
 30
0.0
 11
116.865692929206
 21
51.98409599788199
 31
0.0
  0
LINE
  5
136
  8
DEFAULT
 10
116.865688323975
 20
51.984093043548
 30
0.0
 11
116.875716627522
 21
51.915782658398
 31
0.0
  0
LINE
  5
137
  8
DEFAULT
 10
116.875728607178
 20
51.915779444916
 30
0.0
 11
116.888108746013
 21
51.847855901472
 31
0.0
  0
LINE
  5
138
  8
DEFAULT
 10
116.888103485108
 20
51.847862574798
 30
0.0
 11
116.902820705584
 21
51.780406818833
 31
0.0
  0
LINE
  5
139
  8
DEFAULT
 10
116.902812957764
 20
51.780403468353
 30
0.0
 11
116.919849721093
 21
51.713495888164
 31
0.0
  0
LINE
  5
13A
  8
DEFAULT
 10
116.919857025147
 20
51.71349367831399
 30
0.0
 11
116.939193028295
 21
51.64721400892999
 31
0.0
  0
LINE
  5
13B
  8
DEFAULT
 10
116.939189910889
 20
51.647217128021
 30
0.0
 11
116.960802110777
 21
51.581644356176
 31
0.0
  0
LINE
  5
13C
  8
DEFAULT
 10
116.960811614991
 20
51.581642482025
 30
0.0
 11
116.98467425595
 21
51.51685475203
 31
0.0
  0
LINE
  5
13D
  8
DEFAULT
 10
116.984661102295
 20
51.516853663666
 30
0.0
 11
117.010745746767
 21
51.45292818428399
 31
0.0
  0
LINE
  5
13E
  8
DEFAULT
 10
117.010753631592
 20
51.452926966888
 30
0.0
 11
117.039029194012
 21
51.38993991932099
 31
0.0
  0
LINE
  5
13F
  8
DEFAULT
 10
117.039028167725
 20
51.389946315033
 30
0.0
 11
117.069460951571
 21
51.327972762135
 31
0.0
  0
LINE
  5
140
  8
DEFAULT
 10
117.069454193115
 20
51.327972743255
 30
0.0
 11
117.102007931064
 21
51.267086540081
 31
0.0
  0
LINE
  5
141
  8
DEFAULT
 10
117.102016448975
 20
51.267082545501
 30
0.0
 11
117.136652346121
 21
51.207356251289
 31
0.0
  0
LINE
  5
142
  8
DEFAULT
 10
117.136653900147
 20
51.207359645111
 30
0.0
 11
117.173330680238
 21
51.148864436815
 31
0.0
  0
LINE
  5
143
  8
DEFAULT
 10
117.173320770264
 20
51.14886507724
 30
0.0
 11
117.211994724887
 21
51.09167066470499
 31
0.0
  0
LINE
  5
144
  8
DEFAULT
 10
117.212001800537
 20
51.09166750643899
 30
0.0
 11
117.252626841211
 21
51.035842049328
 31
0.0
  0
LINE
  5
145
  8
DEFAULT
 10
117.252620697022
 20
51.03584322665399
 30
0.0
 11
117.295148410117
 21
50.98145325321799
 31
0.0
  0
LINE
  5
146
  8
DEFAULT
 10
117.295146942139
 20
50.981453273041
 30
0.0
 11
117.339526646576
 21
50.92856360083999
 31
0.0
  0
LINE
  5
147
  8
DEFAULT
 10
117.339534759522
 20
50.928558680755
 30
0.0
 11
117.385713567168
 21
50.87723233941099
 31
0.0
  0
LINE
  5
148
  8
DEFAULT
 10
117.385707855225
 20
50.877235743744
 30
0.0
 11
117.433630733923
 21
50.827533899827
 31
0.0
  0
LINE
  5
149
  8
DEFAULT
 10
117.43363571167
 20
50.82753786776699
 30
0.0
 11
117.48324555082
 21
50.779519751905
 31
0.0
  0
LINE
  5
14A
  8
DEFAULT
 10
117.483242034912
 20
50.77951845858699
 30
0.0
 11
117.534479713531
 21
50.733241294875
 31
0.0
  0
LINE
  5
14B
  8
DEFAULT
 10
117.534481048584
 20
50.733238551361
 30
0.0
 11
117.587285505762
 21
50.68875748917
 31
0.0
  0
LINE
  5
14C
  8
DEFAULT
 10
117.58729171753
 20
50.688759181244
 30
0.0
 11
117.641600025196
 21
50.646127229496
 31
0.0
  0
LINE
  5
14D
  8
DEFAULT
 10
117.641597747803
 20
50.646126124603
 30
0.0
 11
117.697345185723
 21
50.605394088601
 31
0.0
  0
LINE
  5
14E
  8
DEFAULT
 10
117.697338104248
 20
50.605392787201
 30
0.0
 11
117.754458237145
 21
50.566609208082
 31
0.0
  0
LINE
  5
14F
  8
DEFAULT
 10
117.754467010498
 20
50.566612574798
 30
0.0
 11
117.812891767231
 21
50.529823671687
 31
0.0
  0
LINE
  5
150
  8
DEFAULT
 10
117.812892913819
 20
50.529823634369
 30
0.0
 11
117.8725526685
 21
50.495073249295
 31
0.0
  0
LINE
  5
151
  8
DEFAULT
 10
117.872539520264
 20
50.49507174227899
 30
0.0
 11
117.933363175238
 21
50.462401287934
 31
0.0
  0
LINE
  5
152
  8
DEFAULT
 10
117.933376312256
 20
50.462402674896
 30
0.0
 11
117.995291382823
 21
50.431851085278
 31
0.0
  0
LINE
  5
153
  8
DEFAULT
 10
117.995281219483
 20
50.431846949798
 30
0.0
 11
118.058213920282
 21
50.403450633814
 31
0.0
  0
LINE
  5
154
  8
DEFAULT
 10
118.058223724365
 20
50.403450343353
 30
0.0
 11
118.12209905731
 21
50.377243141428
 31
0.0
  0
LINE
  5
155
  8
DEFAULT
 10
118.122097015381
 20
50.377243373138
 30
0.0
 11
118.186838859028
 21
50.35325651689099
 31
0.0
  0
LINE
  5
156
  8
DEFAULT
 10
118.186840057373
 20
50.35325655673199
 30
0.0
 11
118.252371257645
 21
50.331518631752
 31
0.0
  0
LINE
  5
157
  8
DEFAULT
 10
118.252361297608
 20
50.33152041171199
 30
0.0
 11
118.318603759734
 21
50.31205732349599
 31
0.0
  0
LINE
  5
158
  8
DEFAULT
 10
118.318614959717
 20
50.312057826263
 30
0.0
 11
118.385489741304
 21
50.29489276934
 31
0.0
  0
LINE
  5
159
  8
DEFAULT
 10
118.385478973389
 20
50.294891688568
 30
0.0
 11
118.452906378495
 21
50.280045118861
 31
0.0
  0
LINE
  5
15A
  8
DEFAULT
 10
118.452907562256
 20
50.28004488681
 30
0.0
 11
118.520807236369
 21
50.267534497257
 31
0.0
  0
LINE
  5
15B
  8
DEFAULT
 10
118.520809173584
 20
50.26753267977899
 30
0.0
 11
118.589100199379
 21
50.257373379247
 31
0.0
  0
LINE
  5
15C
  8
DEFAULT
 10
118.589107513428
 20
50.257377955658
 30
0.0
 11
118.657708507199
 21
50.24958185117799
 31
0.0
  0
LINE
  5
15D
  8
DEFAULT
 10
118.657695770264
 20
50.24958071444699
 30
0.0
 11
118.72652497891
 21
50.24415709678399
 31
0.0
  0
LINE
  5
15E
  8
DEFAULT
 10
118.726528167725
 20
50.244156214935
 30
0.0
 11
118.795503566178
 21
50.24111154751699
 31
0.0
  0
LINE
  5
15F
  8
DEFAULT
 10
118.795513153076
 20
50.24111208651699
 30
0.0
 11
118.86455254205
 21
50.24044999773099
 31
0.0
  0
LINE
  5
160
  8
DEFAULT
 10
50.10195541381901
 20
132.188522670013
 30
0.0
 11
50.17097651776901
 21
132.190243948884
 31
0.0
  0
LINE
  5
161
  8
DEFAULT
 10
50.17097091674801
 20
132.190246913177
 30
0.0
 11
50.23989148192101
 21
132.194349508423
 31
0.0
  0
LINE
  5
162
  8
DEFAULT
 10
50.23989486694401
 20
132.194336268646
 30
0.0
 11
50.30863275939802
 21
132.200815291127
 31
0.0
  0
LINE
  5
163
  8
DEFAULT
 10
50.30863571167
 20
132.200821253998
 30
0.0
 11
50.377109015162
 21
132.20966898254
 31
0.0
  0
LINE
  5
164
  8
DEFAULT
 10
50.377109527588
 20
132.209671351654
 30
0.0
 11
50.445236641187
 21
132.220877242253
 31
0.0
  0
LINE
  5
165
  8
DEFAULT
 10
50.44523239135801
 20
132.220871302826
 30
0.0
 11
50.51293212669501
 21
132.23442200121
 31
0.0
  0
LINE
  5
166
  8
DEFAULT
 10
50.51293563842801
 20
132.234421107513
 30
0.0
 11
50.58012731645001
 21
132.250300465059
 31
0.0
  0
LINE
  5
167
  8
DEFAULT
 10
50.58012771606501
 20
132.250305506927
 30
0.0
 11
50.646731263178
 21
132.268494599904
 31
0.0
  0
LINE
  5
168
  8
DEFAULT
 10
50.64672470092801
 20
132.26849398349
 30
0.0
 11
50.71266074442801
 21
132.288971135611
 31
0.0
  0
LINE
  5
169
  8
DEFAULT
 10
50.712665557862
 20
132.288971278412
 30
0.0
 11
50.77785552051899
 21
132.311712086669
 31
0.0
  0
LINE
  5
16A
  8
DEFAULT
 10
50.777851104737
 20
132.311706874115
 30
0.0
 11
50.84221729844
 21
132.336684237857
 31
0.0
  0
LINE
  5
16B
  8
DEFAULT
 10
50.84222030639702
 20
132.33668551181
 30
0.0
 11
50.90568602473801
 21
132.363869665041
 31
0.0
  0
LINE
  5
16C
  8
DEFAULT
 10
50.905689239502
 20
132.363876673919
 30
0.0
 11
50.968178849185
 21
132.39323522077
 31
0.0
  0
LINE
  5
16D
  8
DEFAULT
 10
50.968173980713
 20
132.393234584076
 30
0.0
 11
51.02961301168799
 21
132.424732537411
 31
0.0
  0
LINE
  5
16E
  8
DEFAULT
 10
51.02961349487301
 20
132.424728724701
 30
0.0
 11
51.089928729086
 21
132.458328547814
 31
0.0
  0
LINE
  5
16F
  8
DEFAULT
 10
51.08993148803702
 20
132.458328578216
 30
0.0
 11
51.14905104668401
 21
132.493990229564
 31
0.0
  0
LINE
  5
170
  8
DEFAULT
 10
51.14905166626001
 20
132.493988368255
 30
0.0
 11
51.20690509544601
 21
132.531669349173
 31
0.0
  0
LINE
  5
171
  8
DEFAULT
 10
51.20690536499099
 20
132.53167757724
 30
0.0
 11
51.26342371969
 21
132.57133298259
 31
0.0
  0
LINE
  5
172
  8
DEFAULT
 10
51.26342391967801
 20
132.571335170013
 30
0.0
 11
51.31853984590001
 21
132.612917741701
 31
0.0
  0
LINE
  5
173
  8
DEFAULT
 10
51.31853866577202
 20
132.612915370208
 30
0.0
 11
51.37218648082501
 21
132.656375553497
 31
0.0
  0
LINE
  5
174
  8
DEFAULT
 10
51.372188568115
 20
132.656372401458
 30
0.0
 11
54.436366340591
 21
135.227522840205
 31
0.0
  0
LINE
  5
175
  8
DEFAULT
 10
54.436359405518
 20
135.227524134857
 30
0.0
 11
54.488475176287
 21
135.272810137424
 31
0.0
  0
LINE
  5
176
  8
DEFAULT
 10
54.48847579956099
 20
135.272812220794
 30
0.0
 11
54.538997418698
 21
135.319870074456
 31
0.0
  0
LINE
  5
177
  8
DEFAULT
 10
54.53899765014702
 20
135.319870326263
 30
0.0
 11
54.58786491008301
 21
135.368643951285
 31
0.0
  0
LINE
  5
178
  8
DEFAULT
 10
54.58786392211899
 20
135.368637416107
 30
0.0
 11
54.635018586818
 21
135.419068688038
 31
0.0
  0
LINE
  5
179
  8
DEFAULT
 10
54.63502120971702
 20
135.419067713958
 30
0.0
 11
54.68040708407302
 21
135.4710965329
 31
0.0
  0
LINE
  5
17A
  8
DEFAULT
 10
54.680408477783
 20
135.471100184662
 30
0.0
 11
54.723971474592
 21
135.524664546886
 31
0.0
  0
LINE
  5
17B
  8
DEFAULT
 10
54.723972320557
 20
135.524658534271
 30
0.0
 11
54.765660524972
 21
135.579694606116
 31
0.0
  0
LINE
  5
17C
  8
DEFAULT
 10
54.76565933227601
 20
135.579696986419
 30
0.0
 11
54.80542306367601
 21
135.636139180358
 31
0.0
  0
LINE
  5
17D
  8
DEFAULT
 10
54.805423736573
 20
135.636139247162
 30
0.0
 11
54.84321560776799
 21
135.693920299964
 31
0.0
  0
LINE
  5
17E
  8
DEFAULT
 10
54.84321212768599
 20
135.693924281341
 30
0.0
 11
54.87898710138899
 21
135.752975334236
 31
0.0
  0
LINE
  5
17F
  8
DEFAULT
 10
54.878986358643
 20
135.752975795013
 30
0.0
 11
54.912701801142
 21
135.813226475744
 31
0.0
  0
LINE
  5
180
  8
DEFAULT
 10
54.91270828247101
 20
135.813217494232
 30
0.0
 11
54.94432401443601
 21
135.874596000924
 31
0.0
  0
LINE
  5
181
  8
DEFAULT
 10
54.944324493408
 20
135.87460360263
 30
0.0
 11
54.973802837774
 21
135.937036789357
 31
0.0
  0
LINE
  5
182
  8
DEFAULT
 10
54.97379684448301
 20
135.937042567474
 30
0.0
 11
55.00110267134901
 21
136.000456031428
 31
0.0
  0
LINE
  5
183
  8
DEFAULT
 10
55.00110244751001
 20
136.000442836029
 30
0.0
 11
55.02620321600701
 21
136.064761006185
 31
0.0
  0
LINE
  5
184
  8
DEFAULT
 10
55.026203155518
 20
136.064773890716
 30
0.0
 11
55.04906895258599
 21
136.129920117897
 31
0.0
  0
LINE
  5
185
  8
DEFAULT
 10
55.04906845092801
 20
136.129913661224
 30
0.0
 11
55.06967202696401
 21
136.195810309439
 31
0.0
  0
LINE
  5
186
  8
DEFAULT
 10
55.069675445557
 20
136.195816371185
 30
0.0
 11
55.08799224689
 21
136.262384910153
 31
0.0
  0
LINE
  5
187
  8
DEFAULT
 10
55.08799362182599
 20
136.262375209076
 30
0.0
 11
55.104001819978
 21
136.329536307811
 31
0.0
  0
LINE
  5
188
  8
DEFAULT
 10
55.10400009155301
 20
136.329544398529
 30
0.0
 11
55.11768060925102
 21
136.397218019881
 31
0.0
  0
LINE
  5
189
  8
DEFAULT
 10
55.117679595948
 20
136.397217128021
 30
0.0
 11
55.12901612986099
 21
136.465322624057
 31
0.0
  0
LINE
  5
18A
  8
DEFAULT
 10
55.12901687622101
 20
136.465317103607
 30
0.0
 11
55.13799591638801
 21
136.533773311719
 31
0.0
  0
LINE
  5
18B
  8
DEFAULT
 10
55.13799667358401
 20
136.533768031341
 30
0.0
 11
55.14460751951201
 21
136.602493370973
 31
0.0
  0
LINE
  5
18C
  8
DEFAULT
 10
55.14460372924801
 20
136.602493617279
 30
0.0
 11
55.14883850266801
 21
136.671406187145
 31
0.0
  0
LINE
  5
18D
  8
DEFAULT
 10
55.148838043213
 20
136.671417567474
 30
0.0
 11
55.150691697465
 21
136.740435243162
 31
0.0
  0
LINE
  5
18E
  8
DEFAULT
 10
55.15069198608399
 20
136.740433070404
 30
0.0
 11
55.150162312133
 21
136.809473602245
 31
0.0
  0
LINE
  5
18F
  8
DEFAULT
 10
55.15016555786202
 20
136.809463832123
 30
0.0
 11
55.14725318693001
 21
136.878444943211
 31
0.0
  0
LINE
  5
190
  8
DEFAULT
 10
55.14725112915101
 20
136.878448817474
 30
0.0
 11
55.14195953196602
 21
136.947288301716
 31
0.0
  0
LINE
  5
191
  8
DEFAULT
 10
55.14196395874099
 20
136.947296473724
 30
0.0
 11
55.1342994414
 21
137.015912293805
 31
0.0
  0
LINE
  5
192
  8
DEFAULT
 10
55.134296417237
 20
137.015915248138
 30
0.0
 11
55.12426811368899
 21
137.084225633289
 31
0.0
  0
LINE
  5
193
  8
DEFAULT
 10
55.124271392823
 20
137.084213587982
 30
0.0
 11
55.111891253988
 21
137.152137131425
 31
0.0
  0
LINE
  5
194
  8
DEFAULT
 10
55.11188888549801
 20
137.152145716888
 30
0.0
 11
55.09717166502201
 21
137.219601472854
 31
0.0
  0
LINE
  5
195
  8
DEFAULT
 10
55.097171783448
 20
137.219604823334
 30
0.0
 11
55.080135020118
 21
137.286512403522
 31
0.0
  0
LINE
  5
196
  8
DEFAULT
 10
55.08013534545901
 20
137.286499354584
 30
0.0
 11
55.06079934231101
 21
137.352779023968
 31
0.0
  0
LINE
  5
197
  8
DEFAULT
 10
55.06080245971702
 20
137.352783534271
 30
0.0
 11
55.03919025982901
 21
137.418356306116
 31
0.0
  0
LINE
  5
198
  8
DEFAULT
 10
55.03918838501001
 20
137.418350550873
 30
0.0
 11
55.01532574405001
 21
137.483138280867
 31
0.0
  0
LINE
  5
199
  8
DEFAULT
 10
55.01532363891599
 20
137.483139369232
 30
0.0
 11
54.989238994444
 21
137.547064848614
 31
0.0
  0
LINE
  5
19A
  8
DEFAULT
 10
54.98923873901401
 20
137.547073695404
 30
0.0
 11
54.96096317659401
 21
137.610060742971
 31
0.0
  0
LINE
  5
19B
  8
DEFAULT
 10
54.96096420288101
 20
137.610061976654
 30
0.0
 11
54.93053141903501
 21
137.672035529552
 31
0.0
  0
LINE
  5
19C
  8
DEFAULT
 10
54.93053054809601
 20
137.672027919037
 30
0.0
 11
54.89797681014701
 21
137.732914122211
 31
0.0
  0
LINE
  5
19D
  8
DEFAULT
 10
54.89797592163101
 20
137.732910487396
 30
0.0
 11
54.86334002448501
 21
137.792636781608
 31
0.0
  0
LINE
  5
19E
  8
DEFAULT
 10
54.86333847045901
 20
137.792648646576
 30
0.0
 11
54.82666169036801
 21
137.851143854872
 31
0.0
  0
LINE
  5
19F
  8
DEFAULT
 10
54.82666397094801
 20
137.851135585052
 30
0.0
 11
54.78799001632401
 21
137.908329997587
 31
0.0
  0
LINE
  5
1A0
  8
DEFAULT
 10
54.78799057006901
 20
137.908340785248
 30
0.0
 11
54.747365529395
 21
137.964166242359
 31
0.0
  0
LINE
  5
1A1
  8
DEFAULT
 10
54.74736404419
 20
137.964157435638
 30
0.0
 11
54.704836331095
 21
138.018547409074
 31
0.0
  0
LINE
  5
1A2
  8
DEFAULT
 10
54.704837799073
 20
138.018555018646
 30
0.0
 11
54.66045809463599
 21
138.071444690847
 31
0.0
  0
LINE
  5
1A3
  8
DEFAULT
 10
54.66045761108399
 20
138.071441981537
 30
0.0
 11
54.61427880343799
 21
138.122768322881
 31
0.0
  0
LINE
  5
1A4
  8
DEFAULT
 10
54.614276885987
 20
138.122757289154
 30
0.0
 11
54.56635400728799
 21
138.17245913307
 31
0.0
  0
LINE
  5
1A5
  8
DEFAULT
 10
54.56635665893601
 20
138.172470423919
 30
0.0
 11
54.51674681978601
 21
138.220488539782
 31
0.0
  0
LINE
  5
1A6
  8
DEFAULT
 10
54.51675033569399
 20
138.220489833099
 30
0.0
 11
54.465512657075
 21
138.266766996811
 31
0.0
  0
LINE
  5
1A7
  8
DEFAULT
 10
54.46551132202202
 20
138.266754481537
 30
0.0
 11
54.412706864844
 21
138.311235543728
 31
0.0
  0
LINE
  5
1A8
  8
DEFAULT
 10
54.41270828247099
 20
138.311249110443
 30
0.0
 11
54.35839997480399
 21
138.35388106219
 31
0.0
  0
LINE
  5
1A9
  8
DEFAULT
 10
54.358394622803
 20
138.353882167084
 30
0.0
 11
54.30264718488299
 21
138.394614203085
 31
0.0
  0
LINE
  5
1AA
  8
DEFAULT
 10
54.30264663696301
 20
138.394607875091
 30
0.0
 11
54.24552650406601
 21
138.43339145421
 31
0.0
  0
LINE
  5
1AB
  8
DEFAULT
 10
54.245525360108
 20
138.433395716888
 30
0.0
 11
54.18710060337499
 21
138.47018462
 31
0.0
  0
LINE
  5
1AC
  8
DEFAULT
 10
54.187107086182
 20
138.470184657318
 30
0.0
 11
54.1274473315
 21
138.504935042391
 31
0.0
  0
LINE
  5
1AD
  8
DEFAULT
 10
54.127445220948
 20
138.504928920013
 30
0.0
 11
54.066621565974
 21
138.537599374358
 31
0.0
  0
LINE
  5
1AE
  8
DEFAULT
 10
54.06662368774399
 20
138.537597987396
 30
0.0
 11
54.004708617178
 21
138.568149577014
 31
0.0
  0
LINE
  5
1AF
  8
DEFAULT
 10
54.00470352172899
 20
138.568146083099
 30
0.0
 11
53.941770820929
 21
138.596542399084
 31
0.0
  0
LINE
  5
1B0
  8
DEFAULT
 10
53.94177627563501
 20
138.596542689544
 30
0.0
 11
53.87790094269101
 21
138.622749891469
 31
0.0
  0
LINE
  5
1B1
  8
DEFAULT
 10
53.877895355225
 20
138.622757289154
 30
0.0
 11
53.813153511578
 21
138.646744145401
 31
0.0
  0
LINE
  5
1B2
  8
DEFAULT
 10
53.81315231323301
 20
138.64674410556
 30
0.0
 11
53.74762111296101
 21
138.66848203054
 31
0.0
  0
LINE
  5
1B3
  8
DEFAULT
 10
53.74762344360401
 20
138.668472621185
 30
0.0
 11
53.68138098147801
 21
138.687935709402
 31
0.0
  0
LINE
  5
1B4
  8
DEFAULT
 10
53.681385040283
 20
138.687942836029
 30
0.0
 11
53.614510258697
 21
138.705107892952
 31
0.0
  0
LINE
  5
1B5
  8
DEFAULT
 10
53.614505767823
 20
138.705108973724
 30
0.0
 11
53.547078362716
 21
138.719955543431
 31
0.0
  0
LINE
  5
1B6
  8
DEFAULT
 10
53.547077178955
 20
138.719955775482
 30
0.0
 11
53.47917750484199
 21
138.732466165035
 31
0.0
  0
LINE
  5
1B7
  8
DEFAULT
 10
53.479183197022
 20
138.732467982513
 30
0.0
 11
53.410892171227
 21
138.742627283045
 31
0.0
  0
LINE
  5
1B8
  8
DEFAULT
 10
53.41089248657301
 20
138.742630336029
 30
0.0
 11
53.34229149280102
 21
138.750426440508
 31
0.0
  0
LINE
  5
1B9
  8
DEFAULT
 10
53.342288970948
 20
138.75042757724
 30
0.0
 11
53.27345976230099
 21
138.755851194902
 31
0.0
  0
LINE
  5
1BA
  8
DEFAULT
 10
53.273456573487
 20
138.755844447357
 30
0.0
 11
53.204481175034
 21
138.758889114775
 31
0.0
  0
LINE
  5
1BB
  8
DEFAULT
 10
53.20448684692401
 20
138.758896205169
 30
0.0
 11
53.13544745795001
 21
138.759558293955
 31
0.0
  0
LINE
  5
1BC
  8
DEFAULT
 10
53.13544082641599
 20
138.759552333099
 30
0.0
 11
53.066419722466
 21
138.757831054229
 31
0.0
  0
LINE
  5
1BD
  8
DEFAULT
 10
53.06642532348702
 20
138.757828089935
 30
0.0
 11
52.99750475831402
 21
138.753725494689
 31
0.0
  0
LINE
  5
1BE
  8
DEFAULT
 10
52.99750137329099
 20
138.753723475677
 30
0.0
 11
52.928763480837
 21
138.747244453196
 31
0.0
  0
LINE
  5
1BF
  8
DEFAULT
 10
52.92876815795899
 20
138.747253749115
 30
0.0
 11
52.860294854468
 21
138.738406020572
 31
0.0
  0
LINE
  5
1C0
  8
DEFAULT
 10
52.86029434204101
 20
138.738403651458
 30
0.0
 11
52.79216722844202
 21
138.727197760859
 31
0.0
  0
LINE
  5
1C1
  8
DEFAULT
 10
52.79216384887702
 20
138.727188441498
 30
0.0
 11
52.72446411354002
 21
138.713637743114
 31
0.0
  0
LINE
  5
1C2
  8
DEFAULT
 10
52.724460601807
 20
138.71363863681
 30
0.0
 11
52.657268923785
 21
138.697759279265
 31
0.0
  0
LINE
  5
1C3
  8
DEFAULT
 10
52.65727615356501
 20
138.697769496185
 30
0.0
 11
52.59067260645102
 21
138.679580403209
 31
0.0
  0
LINE
  5
1C4
  8
DEFAULT
 10
52.59067153930702
 20
138.679581019623
 30
0.0
 11
52.52473549580701
 21
138.659103867501
 31
0.0
  0
LINE
  5
1C5
  8
DEFAULT
 10
52.52473068237301
 20
138.659103724701
 30
0.0
 11
52.45954071971601
 21
138.636362916443
 31
0.0
  0
LINE
  5
1C6
  8
DEFAULT
 10
52.45954513549801
 20
138.636352870208
 30
0.0
 11
52.39517894179502
 21
138.611375506466
 31
0.0
  0
LINE
  5
1C7
  8
DEFAULT
 10
52.395175933838
 20
138.611374232513
 30
0.0
 11
52.33171021549699
 21
138.584190079282
 31
0.0
  0
LINE
  5
1C8
  8
DEFAULT
 10
52.33171463012702
 20
138.584198329193
 30
0.0
 11
52.26922502044501
 21
138.554839782342
 31
0.0
  0
LINE
  5
1C9
  8
DEFAULT
 10
52.26922225952202
 20
138.554840419037
 30
0.0
 11
52.20778322854701
 21
138.523342465702
 31
0.0
  0
LINE
  5
1CA
  8
DEFAULT
 10
52.20778274536202
 20
138.523346278412
 30
0.0
 11
52.14746751114802
 21
138.489746455298
 31
0.0
  0
LINE
  5
1CB
  8
DEFAULT
 10
52.14746475219801
 20
138.489746424896
 30
0.0
 11
52.08834519355101
 21
138.454084773549
 31
0.0
  0
LINE
  5
1CC
  8
DEFAULT
 10
52.088344573975
 20
138.454071376068
 30
0.0
 11
52.030491144789
 21
138.41639039515
 31
0.0
  0
LINE
  5
1CD
  8
DEFAULT
 10
52.03049087524399
 20
138.416397425873
 30
0.0
 11
51.973972520545
 21
138.376742020522
 31
0.0
  0
LINE
  5
1CE
  8
DEFAULT
 10
51.97397232055702
 20
138.376739833099
 30
0.0
 11
51.91885639433502
 21
138.335157261411
 31
0.0
  0
LINE
  5
1CF
  8
DEFAULT
 10
51.91885757446301
 20
138.335159632904
 30
0.0
 11
51.86520975941001
 21
138.291699449615
 31
0.0
  0
LINE
  5
1D0
  8
DEFAULT
 10
51.86521530151401
 20
138.291702601654
 30
0.0
 11
48.80103752903801
 21
135.720552162908
 31
0.0
  0
LINE
  5
1D1
  8
DEFAULT
 10
48.80103683471702
 20
135.720550868255
 30
0.0
 11
48.74892106394801
 21
135.675264865688
 31
0.0
  0
LINE
  5
1D2
  8
DEFAULT
 10
48.74892044067401
 20
135.675262782318
 30
0.0
 11
48.698398821537
 21
135.628204928657
 31
0.0
  0
LINE
  5
1D3
  8
DEFAULT
 10
48.698398590088
 20
135.628204676849
 30
0.0
 11
48.64953133015199
 21
135.579431051828
 31
0.0
  0
LINE
  5
1D4
  8
DEFAULT
 10
48.64953231811501
 20
135.579437587005
 30
0.0
 11
48.60237765341702
 21
135.529006315074
 31
0.0
  0
LINE
  5
1D5
  8
DEFAULT
 10
48.60237503051801
 20
135.528992030365
 30
0.0
 11
48.55698915616201
 21
135.476963211424
 31
0.0
  0
LINE
  5
1D6
  8
DEFAULT
 10
48.55698776245099
 20
135.476974818451
 30
0.0
 11
48.513424765643
 21
135.423410456226
 31
0.0
  0
LINE
  5
1D7
  8
DEFAULT
 10
48.513423919678
 20
135.423401210052
 30
0.0
 11
48.471735715263
 21
135.368365138207
 31
0.0
  0
LINE
  5
1D8
  8
DEFAULT
 10
48.47173690795901
 20
135.368362757904
 30
0.0
 11
48.431973176559
 21
135.311920563966
 31
0.0
  0
LINE
  5
1D9
  8
DEFAULT
 10
48.431972503662
 20
135.311920497162
 30
0.0
 11
48.39418063246699
 21
135.254139444359
 31
0.0
  0
LINE
  5
1DA
  8
DEFAULT
 10
48.39418411254901
 20
135.254150721771
 30
0.0
 11
48.35840913884601
 21
135.195099668876
 31
0.0
  0
LINE
  5
1DB
  8
DEFAULT
 10
48.358409881592
 20
135.195099208099
 30
0.0
 11
48.324694439093
 21
135.134848527368
 31
0.0
  0
LINE
  5
1DC
  8
DEFAULT
 10
48.32469558715801
 20
135.134842250091
 30
0.0
 11
48.29307985519301
 21
135.073463743399
 31
0.0
  0
LINE
  5
1DD
  8
DEFAULT
 10
48.29307937622101
 20
135.073471400482
 30
0.0
 11
48.26360103185501
 21
135.011038213755
 31
0.0
  0
LINE
  5
1DE
  8
DEFAULT
 10
48.263599395752
 20
135.011032435638
 30
0.0
 11
48.23629356888599
 21
134.947618971685
 31
0.0
  0
LINE
  5
1DF
  8
DEFAULT
 10
48.236293792725
 20
134.947616908294
 30
0.0
 11
48.211193024228
 21
134.883298738138
 31
0.0
  0
LINE
  5
1E0
  8
DEFAULT
 10
48.211193084717
 20
134.883301112396
 30
0.0
 11
48.188327287649
 21
134.818154885215
 31
0.0
  0
LINE
  5
1E1
  8
DEFAULT
 10
48.18832778930702
 20
134.818161341888
 30
0.0
 11
48.16772421327101
 21
134.752264693673
 31
0.0
  0
LINE
  5
1E2
  8
DEFAULT
 10
48.167720794678
 20
134.752258631927
 30
0.0
 11
48.149403993345
 21
134.685690092959
 31
0.0
  0
LINE
  5
1E3
  8
DEFAULT
 10
48.14940261840801
 20
134.685684535248
 30
0.0
 11
48.13339442025701
 21
134.618523436512
 31
0.0
  0
LINE
  5
1E4
  8
DEFAULT
 10
48.13339614868202
 20
134.618530604584
 30
0.0
 11
48.11971563098401
 21
134.550856983231
 31
0.0
  0
LINE
  5
1E5
  8
DEFAULT
 10
48.11971664428702
 20
134.550857875091
 30
0.0
 11
48.10838011037401
 21
134.482752379056
 31
0.0
  0
LINE
  5
1E6
  8
DEFAULT
 10
48.10837936401401
 20
134.482757899505
 30
0.0
 11
48.09940032384701
 21
134.414301691393
 31
0.0
  0
LINE
  5
1E7
  8
DEFAULT
 10
48.09939956665101
 20
134.414291712982
 30
0.0
 11
48.09278872072201
 21
134.34556637335
 31
0.0
  0
LINE
  5
1E8
  8
DEFAULT
 10
48.09279251098702
 20
134.345566127044
 30
0.0
 11
48.08855773756701
 21
134.276653557179
 31
0.0
  0
LINE
  5
1E9
  8
DEFAULT
 10
48.088558197022
 20
134.276657435638
 30
0.0
 11
48.08670454277
 21
134.20763975995
 31
0.0
  0
LINE
  5
1EA
  8
DEFAULT
 10
48.08670425415101
 20
134.207641932708
 30
0.0
 11
48.08723392810202
 21
134.138601400867
 31
0.0
  0
LINE
  5
1EB
  8
DEFAULT
 10
48.08723068237301
 20
134.138595912201
 30
0.0
 11
48.09014305330501
 21
134.069614801112
 31
0.0
  0
LINE
  5
1EC
  8
DEFAULT
 10
48.09014511108401
 20
134.069610926849
 30
0.0
 11
48.09543670826901
 21
134.000771442607
 31
0.0
  0
LINE
  5
1ED
  8
DEFAULT
 10
48.09543228149399
 20
134.000778529388
 30
0.0
 11
48.103096798835
 21
133.932162709307
 31
0.0
  0
LINE
  5
1EE
  8
DEFAULT
 10
48.10309982299801
 20
133.932159754974
 30
0.0
 11
48.11312812654601
 21
133.863849369824
 31
0.0
  0
LINE
  5
1EF
  8
DEFAULT
 10
48.11312484741202
 20
133.863846156341
 30
0.0
 11
48.12550498624702
 21
133.795922612898
 31
0.0
  0
LINE
  5
1F0
  8
DEFAULT
 10
48.125507354737
 20
133.795929286224
 30
0.0
 11
48.140224575213
 21
133.728473530259
 31
0.0
  0
LINE
  5
1F1
  8
DEFAULT
 10
48.14022445678702
 20
133.728470179779
 30
0.0
 11
48.15726122011601
 21
133.66156259959
 31
0.0
  0
LINE
  5
1F2
  8
DEFAULT
 10
48.15726089477601
 20
133.66156038974
 30
0.0
 11
48.17659689792401
 21
133.595280720356
 31
0.0
  0
LINE
  5
1F3
  8
DEFAULT
 10
48.17660140991202
 20
133.595291468841
 30
0.0
 11
48.19821360980001
 21
133.529718696996
 31
0.0
  0
LINE
  5
1F4
  8
DEFAULT
 10
48.198207855225
 20
133.529709193451
 30
0.0
 11
48.22207049618499
 21
133.464921463456
 31
0.0
  0
LINE
  5
1F5
  8
DEFAULT
 10
48.22207260131901
 20
133.464920375091
 30
0.0
 11
48.24815724579002
 21
133.400994895709
 31
0.0
  0
LINE
  5
1F6
  8
DEFAULT
 10
48.24815750122101
 20
133.401001307708
 30
0.0
 11
48.27643306364102
 21
133.338014260141
 31
0.0
  0
LINE
  5
1F7
  8
DEFAULT
 10
48.27643203735399
 20
133.338013026458
 30
0.0
 11
48.3068648212
 21
133.27603947356
 31
0.0
  0
LINE
  5
1F8
  8
DEFAULT
 10
48.30686569213901
 20
133.276031825287
 30
0.0
 11
48.33941943008701
 21
133.215145622112
 31
0.0
  0
LINE
  5
1F9
  8
DEFAULT
 10
48.33942031860399
 20
133.215149256927
 30
0.0
 11
48.37405621575
 21
133.155422962715
 31
0.0
  0
LINE
  5
1FA
  8
DEFAULT
 10
48.37405776977601
 20
133.155426356537
 30
0.0
 11
48.41073454986701
 21
133.096931148241
 31
0.0
  0
LINE
  5
1FB
  8
DEFAULT
 10
48.41073226928702
 20
133.096924159271
 30
0.0
 11
48.44940622391101
 21
133.039729746736
 31
0.0
  0
LINE
  5
1FC
  8
DEFAULT
 10
48.44940567016601
 20
133.039734217865
 30
0.0
 11
48.49003071084001
 21
132.983908760753
 31
0.0
  0
LINE
  5
1FD
  8
DEFAULT
 10
48.490032196045
 20
132.983917567474
 30
0.0
 11
48.53255990914
 21
132.929527594038
 31
0.0
  0
LINE
  5
1FE
  8
DEFAULT
 10
48.53255844116202
 20
132.929519984466
 30
0.0
 11
48.57693814559901
 21
132.876630312265
 31
0.0
  0
LINE
  5
1FF
  8
DEFAULT
 10
48.57693862915101
 20
132.876633021576
 30
0.0
 11
48.62311743679701
 21
132.825306680231
 31
0.0
  0
LINE
  5
200
  8
DEFAULT
 10
48.62311935424801
 20
132.825302455169
 30
0.0
 11
48.67104223294701
 21
132.775600611253
 31
0.0
  0
LINE
  5
201
  8
DEFAULT
 10
48.67103958129899
 20
132.775604579193
 30
0.0
 11
48.720649420449
 21
132.727586463331
 31
0.0
  0
LINE
  5
202
  8
DEFAULT
 10
48.72065353393599
 20
132.727585170013
 30
0.0
 11
48.771891212554
 21
132.681308006301
 31
0.0
  0
LINE
  5
203
  8
DEFAULT
 10
48.771884918213
 20
132.681305262787
 30
0.0
 11
48.824689375391
 21
132.636824200596
 31
0.0
  0
LINE
  5
204
  8
DEFAULT
 10
48.824695587158
 20
132.636825892669
 30
0.0
 11
48.879003894825
 21
132.594193940922
 31
0.0
  0
LINE
  5
205
  8
DEFAULT
 10
48.879001617432
 20
132.594192836029
 30
0.0
 11
48.934749055351
 21
132.553460800027
 31
0.0
  0
LINE
  5
206
  8
DEFAULT
 10
48.93474960327202
 20
132.553467128021
 30
0.0
 11
48.99186973616901
 21
132.514683548902
 31
0.0
  0
LINE
  5
207
  8
DEFAULT
 10
48.991870880127
 20
132.514679286224
 30
0.0
 11
49.05029563685999
 21
132.477890383113
 31
0.0
  0
LINE
  5
208
  8
DEFAULT
 10
49.050296783448
 20
132.477890345794
 30
0.0
 11
49.10995653812899
 21
132.443139960721
 31
0.0
  0
LINE
  5
209
  8
DEFAULT
 10
49.10995101928702
 20
132.443146083099
 30
0.0
 11
49.17077467426102
 21
132.410475628755
 31
0.0
  0
LINE
  5
20A
  8
DEFAULT
 10
49.17078018188501
 20
132.410461756927
 30
0.0
 11
49.23269525245201
 21
132.379910167309
 31
0.0
  0
LINE
  5
20B
  8
DEFAULT
 10
49.23269271850599
 20
132.379913661224
 30
0.0
 11
49.295625419306
 21
132.35151734524
 31
0.0
  0
LINE
  5
20C
  8
DEFAULT
 10
49.29562759399399
 20
132.351517054779
 30
0.0
 11
49.359502926938
 21
132.325309852854
 31
0.0
  0
LINE
  5
20D
  8
DEFAULT
 10
49.35950088501001
 20
132.325317713958
 30
0.0
 11
49.42424272865701
 21
132.301330857711
 31
0.0
  0
LINE
  5
20E
  8
DEFAULT
 10
49.424243927002
 20
132.301330897552
 30
0.0
 11
49.48977512727399
 21
132.279592972572
 31
0.0
  0
LINE
  5
20F
  8
DEFAULT
 10
49.48977279663099
 20
132.279587123138
 30
0.0
 11
49.55601525875699
 21
132.260124034922
 31
0.0
  0
LINE
  5
210
  8
DEFAULT
 10
49.55601882934601
 20
132.260132167084
 30
0.0
 11
49.62289361093301
 21
132.24296711016
 31
0.0
  0
LINE
  5
211
  8
DEFAULT
 10
49.62289047241202
 20
132.242966029388
 30
0.0
 11
49.69031787751901
 21
132.228119459681
 31
0.0
  0
LINE
  5
212
  8
DEFAULT
 10
49.69031906128
 20
132.22811922763
 30
0.0
 11
49.75821873539299
 21
132.215608838077
 31
0.0
  0
LINE
  5
213
  8
DEFAULT
 10
49.75822067260801
 20
132.215607020599
 30
0.0
 11
49.82651169840302
 21
132.205447720068
 31
0.0
  0
LINE
  5
214
  8
DEFAULT
 10
49.826511383057
 20
132.205444667084
 30
0.0
 11
49.895112376828
 21
132.197648562604
 31
0.0
  0
LINE
  5
215
  8
DEFAULT
 10
49.89510726928702
 20
132.197647425873
 30
0.0
 11
49.96393647793401
 21
132.19222380821
 31
0.0
  0
LINE
  5
216
  8
DEFAULT
 10
49.96393966674801
 20
132.192230555755
 30
0.0
 11
50.03291506520102
 21
132.189185888337
 31
0.0
  0
LINE
  5
217
  8
DEFAULT
 10
50.03291702270501
 20
132.189178797943
 30
0.0
 11
50.10195641167901
 21
132.188516709157
 31
0.0
  0
CIRCLE
  5
218
  8
DEFAULT
 10
93.744438495959
 20
77.75555401665
 30
0.0
 40
1.5
  0
CIRCLE
  5
219
  8
DEFAULT
 10
93.744438495959
 20
63.75555446721
 30
0.0
 40
1.5
  0
CIRCLE
  5
21A
  8
DEFAULT
 10
93.744438495959
 20
77.75555401665
 30
0.0
 40
1.249499938816
  0
CIRCLE
  5
21B
  8
DEFAULT
 10
93.744438495959
 20
63.75555446721
 30
0.0
 40
1.249499938816
  0
LINE
  5
21C
  8
DEFAULT
 10
70.74444198608401
 20
81.755554530365
 30
0.0
 11
70.74444198608401
 21
32.755554530365
 31
0.0
  0
LINE
  5
21D
  8
DEFAULT
 10
106.744441986084
 20
81.755554530365
 30
0.0
 11
70.74444198608401
 21
81.755554530365
 31
0.0
  0
LINE
  5
21E
  8
DEFAULT
 10
106.744441986084
 20
59.755554530365
 30
0.0
 11
106.744441986084
 21
81.755554530365
 31
0.0
  0
LINE
  5
21F
  8
DEFAULT
 10
82.74444198608401
 20
59.755554530365
 30
0.0
 11
106.744441986084
 21
59.755554530365
 31
0.0
  0
LINE
  5
220
  8
DEFAULT
 10
82.74444198608401
 20
32.755554530365
 30
0.0
 11
82.74444198608401
 21
59.755554530365
 31
0.0
  0
LINE
  5
221
  8
DEFAULT
 10
70.74444198608401
 20
32.755554530365
 30
0.0
 11
82.74444198608401
 21
32.755554530365
 31
0.0
  0
CIRCLE
  5
222
  8
DEFAULT
 10
76.74444490619902
 20
54.755551161738
 30
0.0
 40
2.499999956992
  0
CIRCLE
  5
223
  8
DEFAULT
 10
76.74444490619902
 20
75.755550485898
 30
-0.0000000000000018
 40
2.499999956992
  0
LINE
  5
224
  8
DEFAULT
 10
109.8582211985151
 20
86.563284273117
 30
0.0
 11
109.8582211985151
 21
123.563284273117
 31
0.0
  0
LINE
  5
225
  8
DEFAULT
 10
77.85822119851503
 20
86.563284273117
 30
0.0
 11
109.8582211985151
 21
86.563284273117
 31
0.0
  0
LINE
  5
226
  8
DEFAULT
 10
77.85822119851503
 20
123.563284273117
 30
0.0
 11
77.85822119851503
 21
86.563284273117
 31
0.0
  0
LINE
  5
227
  8
DEFAULT
 10
109.8582211985151
 20
123.563284273117
 30
0.0
 11
77.85822119851503
 21
123.563284273117
 31
0.0
  0
CIRCLE
  5
228
  8
DEFAULT
 10
103.8582211985151
 20
96.563284273117
 30
0.0
 40
2.5
  0
CIRCLE
  5
229
  8
DEFAULT
 10
83.85822119851503
 20
96.563284273117
 30
-0.0000000000000009
 40
2.5
  0
CIRCLE
  5
22A
  8
DEFAULT
 10
103.8582211985151
 20
116.563284273117
 30
0.0
 40
2.5
  0
CIRCLE
  5
22B
  8
DEFAULT
 10
83.85822119851503
 20
116.563284273117
 30
-0.0000000000000009
 40
2.5
  0
ARC
  5
22C
  8
DEFAULT
 10
242.8835105896
 20
64.222763392669
 30
0.0
 40
40.322202843333
 50
129.913156663121
 51
165.212509738577
  0
CIRCLE
  5
22D
  8
DEFAULT
 10
23.74443972475899
 20
146.755558223242
 30
-0.0000000000000009
 40
1.5
  0
CIRCLE
  5
22E
  8
DEFAULT
 10
23.74443972475899
 20
160.755557772682
 30
-0.0000000000000009
 40
1.5
  0
CIRCLE
  5
22F
  8
DEFAULT
 10
23.74443972475899
 20
160.755557772682
 30
-0.0000000000000009
 40
1.249499938816
  0
CIRCLE
  5
230
  8
DEFAULT
 10
23.74443972475899
 20
146.755558223242
 30
-0.0000000000000009
 40
1.249499938816
  0
LINE
  5
231
  8
DEFAULT
 10
0.7444419860839844
 20
164.755554530365
 30
0.0
 11
0.7444419860839844
 21
115.755554530365
 31
0.0
  0
LINE
  5
232
  8
DEFAULT
 10
36.74444198608401
 20
164.755554530365
 30
0.0
 11
0.7444419860839844
 21
164.755554530365
 31
0.0
  0
LINE
  5
233
  8
DEFAULT
 10
36.74444198608401
 20
142.755554530365
 30
0.0
 11
36.74444198608401
 21
164.755554530365
 31
0.0
  0
LINE
  5
234
  8
DEFAULT
 10
12.74444198608398
 20
142.755554530365
 30
0.0
 11
36.74444198608401
 21
142.755554530365
 31
0.0
  0
LINE
  5
235
  8
DEFAULT
 10
12.74444198608398
 20
115.755554530365
 30
0.0
 11
12.74444198608398
 21
142.755554530365
 31
0.0
  0
LINE
  5
236
  8
DEFAULT
 10
0.7444419860839844
 20
115.755554530365
 30
0.0
 11
12.74444198608398
 21
115.755554530365
 31
0.0
  0
CIRCLE
  5
237
  8
DEFAULT
 10
6.744446134998981
 20
137.75555491777
 30
0.0
 40
2.499999956992
  0
CIRCLE
  5
238
  8
DEFAULT
 10
6.744446134998981
 20
158.75555424193
 30
0.0
 40
2.499999956992
  0
CIRCLE
  5
239
  8
DEFAULT
 10
6.839673867403008
 20
192.66583730416
 30
0.0
 40
2.499999956992
  0
CIRCLE
  5
23A
  8
DEFAULT
 10
76.83953739687507
 20
192.5353441181121
 30
0.0
 40
2.499999956992
  0
CIRCLE
  5
23B
  8
DEFAULT
 10
7.876002499723086
 20
212.163931863392
 30
0.0
 40
1.999999991808
  0
CIRCLE
  5
23C
  8
DEFAULT
 10
88.87588125402704
 20
212.012936919392
 30
0.0
 40
1.999999991808
  0
LINE
  5
23D
  8
DEFAULT
 10
0.8881589426550818
 20
218.676977510422
 30
0.0
 11
0.821045686933985
 21
182.677040068658
 31
0.0
  0
LINE
  5
23E
  8
DEFAULT
 10
0.8210202707800818
 20
182.6770385455781
 30
0.0
 11
21.80234120744205
 21
172.6379065236951
 31
0.0
  0
LINE
  5
23F
  8
DEFAULT
 10
21.80234351296804
 20
172.6378997516331
 30
0.0
 11
61.80227400381608
 21
172.5633294674981
 31
0.0
  0
LINE
  5
240
  8
DEFAULT
 10
61.80228247781105
 20
172.5633300494841
 30
0.0
 11
95.82086596606706
 21
182.4999279306811
 31
0.0
  0
LINE
  5
241
  8
DEFAULT
 10
95.82086768289003
 20
182.4999297809301
 30
0.0
 11
95.88798093861107
 21
218.499867222694
 31
0.0
  0
LINE
  5
242
  8
DEFAULT
 10
95.88797583718707
 20
218.499868745773
 30
0.0
 11
81.88800016538903
 21
218.525968345221
 31
0.0
  0
LINE
  5
243
  8
DEFAULT
 10
81.88800635476503
 20
218.5259765338591
 30
0.0
 11
61.85821299569005
 21
202.56328948182
 31
0.0
  0
LINE
  5
244
  8
DEFAULT
 10
61.85822119851508
 20
202.563284273117
 30
0.0
 11
61.82093604898404
 21
182.563319021001
 31
0.0
  0
LINE
  5
245
  8
DEFAULT
 10
61.82092871804605
 20
182.563314790695
 30
0.0
 11
21.82099822719704
 21
182.637885074831
 31
0.0
  0
LINE
  5
246
  8
DEFAULT
 10
21.82098975320207
 20
182.637884492844
 30
0.0
 11
21.85827490272902
 21
202.637849742727
 31
0.0
  0
LINE
  5
247
  8
DEFAULT
 10
21.85828223367105
 20
202.637853975266
 30
0.0
 11
14.88812251142599
 21
218.650875971329
 31
0.0
  0
LINE
  5
248
  8
DEFAULT
 10
14.88812842507707
 20
218.650869722336
 30
0.0
 11
0.8881527532799964
 21
218.6769693217831
 31
0.0
  0
CIRCLE
  5
249
  8
DEFAULT
 10
155.449317075671
 20
153.964998303114
 30
-0.0000000000000009
 40
13.699999858688
  0
CIRCLE
  5
24A
  8
DEFAULT
 10
120.244443228887
 20
189.49999742913
 30
-0.0000000000000009
 40
2.499999956992
  0
CIRCLE
  5
24B
  8
DEFAULT
 10
190.244440976087
 20
189.49999742913
 30
-0.0000000000000009
 40
2.499999956992
  0
CIRCLE
  5
24C
  8
DEFAULT
 10
108.244438821591
 20
198.00000614337
 30
0.0
 40
1.999999991808
  0
CIRCLE
  5
24D
  8
DEFAULT
 10
202.244445383383
 20
198.00000614337
 30
0.0
 40
1.999999991808
  0
LINE
  5
24E
  8
DEFAULT
 10
164.562786102295
 20
135.310501429779
 30
0.0
 11
209.244437025683
 21
161.499999410931
 31
0.0
  0
LINE
  5
24F
  8
DEFAULT
 10
209.244441986084
 20
161.500000331146
 30
0.0
 11
209.244441986084
 21
202.500000331146
 31
0.0
  0
LINE
  5
250
  8
DEFAULT
 10
209.244441986084
 20
202.500000331146
 30
0.0
 11
195.244441986084
 21
202.500000331146
 31
0.0
  0
LINE
  5
251
  8
DEFAULT
 10
195.244441986084
 20
202.500000331146
 30
0.0
 11
175.244441993535
 21
199.500000331146
 31
0.0
  0
LINE
  5
252
  8
DEFAULT
 10
175.244441986084
 20
199.500000331146
 30
0.0
 11
175.244441986084
 21
179.500000331146
 31
0.0
  0
LINE
  5
253
  8
DEFAULT
 10
175.244441986084
 20
179.500000331146
 30
0.0
 11
135.244441986084
 21
179.500000331146
 31
0.0
  0
LINE
  5
254
  8
DEFAULT
 10
135.244441986084
 20
179.500000331146
 30
0.0
 11
135.244441978634
 21
199.500000331146
 31
0.0
  0
LINE
  5
255
  8
DEFAULT
 10
135.244441986084
 20
199.500000331146
 30
0.0
 11
115.244441986084
 21
202.500000331146
 31
0.0
  0
LINE
  5
256
  8
DEFAULT
 10
115.244441986084
 20
202.500000331146
 30
0.0
 11
101.244441986084
 21
202.500000331146
 31
0.0
  0
LINE
  5
257
  8
DEFAULT
 10
101.244441986084
 20
202.500000331146
 30
0.0
 11
101.244441986084
 21
179.500000331146
 31
0.0
  0
LINE
  5
258
  8
DEFAULT
 10
101.244441986084
 20
179.500000331146
 30
0.0
 11
139.95473553246
 21
138.784323172282
 31
0.0
  0
ARC
  5
259
  8
DEFAULT
 10
154.449321746826
 20
152.565002772552
 30
0.0
 40
20.0
 50
223.5536769656129
 51
300.376077757056
  0
LINE
  5
25A
  8
DEFAULT
 10
180.704067230225
 20
255.197800013763
 30
0.0
 11
140.704067230225
 21
255.197800013764
 31
0.0
  0
LINE
  5
25B
  8
DEFAULT
 10
180.704067230225
 20
203.197800013763
 30
0.0
 11
180.704067230225
 21
255.197800013763
 31
0.0
  0
LINE
  5
25C
  8
DEFAULT
 10
140.704067230225
 20
203.197800013763
 30
0.0
 11
180.704067230225
 21
203.197800013763
 31
0.0
  0
LINE
  5
25D
  8
DEFAULT
 10
140.704067230225
 20
217.35507235263
 30
0.0
 11
140.704067230225
 21
203.197791630487
 31
0.0
  0
ARC
  5
25E
  8
DEFAULT
 10
150.704067230225
 20
229.197800013763
 30
0.0
 40
15.5
 50
130.1777695401459
 51
229.8222304598529
  0
LINE
  5
25F
  8
DEFAULT
 10
140.704067230225
 20
255.197800013763
 30
0.0
 11
140.704067230225
 21
241.040519300561
 31
0.0
  0
CIRCLE
  5
260
  8
DEFAULT
 10
150.704067230225
 20
229.197800013763
 30
0.0
 40
9.5
  0
CIRCLE
  5
261
  8
DEFAULT
 10
170.704067230225
 20
244.197800013763
 30
-0.0000000000000009
 40
2.5
  0
CIRCLE
  5
262
  8
DEFAULT
 10
170.704067230225
 20
214.197800013763
 30
0.0
 40
2.5
  0
CIRCLE
  5
263
  8
DEFAULT
 10
230.7823549085315
 20
171.7458303326885
 30
0.0
 40
2.0
  0
CIRCLE
  5
264
  8
DEFAULT
 10
270.7823568158795
 20
199.7458303326885
 30
0.0
 40
2.5
  0
CIRCLE
  5
265
  8
DEFAULT
 10
250.7823549085315
 20
199.7458303326885
 30
0.0
 40
2.5
  0
CIRCLE
  5
266
  8
DEFAULT
 10
230.7823549085315
 20
184.7458303326885
 30
0.0
 40
9.5
  0
CIRCLE
  5
267
  8
DEFAULT
 10
230.7823549085315
 20
197.7458303326885
 30
0.0
 40
2.0
  0
LINE
  5
268
  8
DEFAULT
 10
240.2176423841175
 20
168.2541616315165
 30
0.0
 11
277.7823576158825
 21
189.7458383684835
 31
0.0
  0
LINE
  5
269
  8
DEFAULT
 10
277.7823568158795
 20
189.7458303326885
 30
0.0
 11
277.7823568158785
 21
214.7458303326885
 31
0.0
  0
LINE
  5
26A
  8
DEFAULT
 10
277.7823568158795
 20
214.7458303326885
 30
0.0
 11
220.7823568158795
 21
214.7458303326855
 31
0.0
  0
LINE
  5
26B
  8
DEFAULT
 10
220.7823549085315
 20
214.7458303326885
 30
0.0
 11
212.7636387966865
 21
190.7729249635585
 31
0.0
  0
ARC
  5
26C
  8
DEFAULT
 10
230.7823549085315
 20
184.7458303326885
 30
0.0
 40
19.000000004471
 50
161.5053861516659
 51
299.774911228995
  0
CIRCLE
  5
26D
  8
DEFAULT
 10
93.988887786865
 20
277.500000331146
 30
0.0
 40
1.5
  0
CIRCLE
  5
26E
  8
DEFAULT
 10
79.988887786865
 20
277.500000331146
 30
-0.0000000000000009
 40
1.5
  0
CIRCLE
  5
26F
  8
DEFAULT
 10
60.48888641403899
 20
237.50000203713
 30
0.0
 40
1.5
  0
CIRCLE
  5
270
  8
DEFAULT
 10
46.488886864599
 20
237.50000203713
 30
0.0
 40
1.5
  0
LINE
  5
271
  8
DEFAULT
 10
71.488887786865
 20
271.500000331146
 30
0.0
 11
71.488887786865
 21
293.500000323695
 31
0.0
  0
LINE
  5
272
  8
DEFAULT
 10
65.488887786865
 20
221.500000331146
 30
0.0
 11
65.488887786865
 21
246.500000331146
 31
0.0
  0
LINE
  5
273
  8
DEFAULT
 10
135.829265594483
 20
270.942169520599
 30
0.0
 11
97.988888596712
 21
293.500003385282
 31
0.0
  0
ARC
  5
274
  8
DEFAULT
 10
131.988887786865
 20
264.500000331146
 30
0.0
 40
7.5
 50
342.1090681974882
 51
59.19950629159115
  0
LINE
  5
275
  8
DEFAULT
 10
125.988887786865
 20
221.500000331146
 30
0.0
 11
139.126210566336
 21
262.195955292172
 31
0.0
  0
LINE
  5
276
  8
DEFAULT
 10
68.988887786865
 20
221.500000331146
 30
0.0
 11
125.988887786865
 21
221.500000331148
 31
0.0
  0
LINE
  5
277
  8
DEFAULT
 10
68.988887786865
 20
243.500000331146
 30
0.0
 11
68.988887786866
 21
221.500000338597
 31
0.0
  0
LINE
  5
278
  8
DEFAULT
 10
74.988887786865
 20
268.500000331146
 30
0.0
 11
68.98888778686702
 21
243.500000323695
 31
0.0
  0
LINE
  5
279
  8
DEFAULT
 10
74.988887786865
 20
293.500000331146
 30
0.0
 11
74.988887786867
 21
268.500000331146
 31
0.0
  0
LINE
  5
27A
  8
DEFAULT
 10
97.988887786865
 20
293.500000331146
 30
0.0
 11
74.988887786866
 21
293.500000331145
 31
0.0
  0
CIRCLE
  5
27B
  8
DEFAULT
 10
99.988887786865
 20
264.500000331146
 30
0.0
 40
2.5
  0
CIRCLE
  5
27C
  8
DEFAULT
 10
131.988887786865
 20
264.500000331146
 30
0.0
 40
2.5
  0
CIRCLE
  5
27D
  8
DEFAULT
 10
115.988887786865
 20
238.500000331146
 30
-0.0000000000000018
 40
2.0
  0
CIRCLE
  5
27E
  8
DEFAULT
 10
115.988887786865
 20
264.500000331146
 30
0.0
 40
2.0
  0
CIRCLE
  5
27F
  8
DEFAULT
 10
115.988887786865
 20
251.500000331146
 30
0.0
 40
9.5
  0
CIRCLE
  5
280
  8
DEFAULT
 10
95.988887786865
 20
236.500000331146
 30
0.0
 40
2.5
  0
CIRCLE
  5
281
  8
DEFAULT
 10
75.988887786865
 20
236.500000331146
 30
0.0
 40
2.5
  0
LINE
  5
282
  8
DEFAULT
 10
71.488887786865
 20
293.500000331146
 30
0.0
 11
14.488887786865
 21
293.500000331146
 31
0.0
  0
LINE
  5
283
  8
DEFAULT
 10
65.488887786865
 20
246.500000331146
 30
0.0
 11
71.488887786865
 21
271.500000338597
 31
0.0
  0
LINE
  5
284
  8
DEFAULT
 10
42.488887786865
 20
221.500000331146
 30
0.0
 11
65.488887786865
 21
221.500000331146
 31
0.0
  0
CIRCLE
  5
285
  8
DEFAULT
 10
40.488883972168
 20
250.500000331146
 30
0.0
 40
2.5
  0
CIRCLE
  5
286
  8
DEFAULT
 10
8.488883972168
 20
250.500000331146
 30
0.0
 40
2.5
  0
CIRCLE
  5
287
  8
DEFAULT
 10
24.488885775063
 20
276.500015259018
 30
0.0
 40
1.999999991808
  0
CIRCLE
  5
288
  8
DEFAULT
 10
24.488885775063
 20
250.499994525066
 30
0.0
 40
1.999999991808
  0
CIRCLE
  5
289
  8
DEFAULT
 10
24.488885775063
 20
263.499988114826
 30
0.0
 40
9.499999993856
  0
CIRCLE
  5
28A
  8
DEFAULT
 10
44.48888752815101
 20
278.499993623946
 30
0.0
 40
2.499999956992
  0
CIRCLE
  5
28B
  8
DEFAULT
 10
64.488885086935
 20
278.499993623946
 30
0.0
 40
2.499999956992
  0
LINE
  5
28C
  8
DEFAULT
 10
14.488883972168
 20
293.500000331146
 30
0.0
 11
1.351561192696
 21
252.80404537012
 31
0.0
  0
ARC
  5
28D
  8
DEFAULT
 10
8.488883972168
 20
250.500000331146
 30
0.0
 40
7.5
 50
162.109068197485
 51
239.1995062915881
  0
LINE
  5
28E
  8
DEFAULT
 10
4.6485080719
 20
244.057831141693
 30
0.0
 11
42.48888506966901
 21
221.499997277008
 31
0.0
  0
CIRCLE
  5
28F
  8
DEFAULT
 10
267.744448740055
 20
250.755545079178
 30
0.0
 40
2.499999956992
  0
CIRCLE
  5
290
  8
DEFAULT
 10
267.744448740055
 20
230.755560103306
 30
0.0
 40
2.499999956992
  0
CIRCLE
  5
291
  8
DEFAULT
 10
199.744446134999
 20
286.755558301066
 30
0.0
 40
2.499999956992
  0
CIRCLE
  5
292
  8
DEFAULT
 10
199.744446134999
 20
266.755539770762
 30
0.0
 40
2.499999956992
  0
LINE
  5
293
  8
DEFAULT
 10
194.744441986084
 20
222.755554530365
 30
0.0
 11
248.744441986084
 21
222.755554530365
 31
0.0
  0
LINE
  5
294
  8
DEFAULT
 10
248.744441986084
 20
222.755554530365
 30
0.0
 11
248.744441986084
 21
256.755554530365
 31
0.0
  0
LINE
  5
295
  8
DEFAULT
 10
248.744441986084
 20
256.755554530365
 30
0.0
 11
215.744441986084
 21
256.755554530365
 31
0.0
  0
LINE
  5
296
  8
DEFAULT
 10
215.744441986084
 20
256.755554530365
 30
0.0
 11
215.744441986084
 21
294.755554530365
 31
0.0
  0
LINE
  5
297
  8
DEFAULT
 10
215.744441986084
 20
294.755554530365
 30
0.0
 11
183.744441986084
 21
294.755554530365
 31
0.0
  0
LINE
  5
298
  8
DEFAULT
 10
183.744441986084
 20
294.755554530365
 30
0.0
 11
183.744441986084
 21
256.755554530365
 31
0.0
  0
LINE
  5
299
  8
DEFAULT
 10
183.744441986084
 20
256.755554530365
 30
0.0
 11
194.744441986084
 21
222.755554530365
 31
0.0
  0
LINE
  5
29A
  8
DEFAULT
 10
251.744441986084
 20
222.755554530365
 30
0.0
 11
283.744441986084
 21
222.755554530365
 31
0.0
  0
LINE
  5
29B
  8
DEFAULT
 10
283.744441986084
 20
222.755554530365
 30
0.0
 11
283.744441986084
 21
260.755554530365
 31
0.0
  0
LINE
  5
29C
  8
DEFAULT
 10
283.744441986084
 20
260.755554530365
 30
0.0
 11
272.744441986084
 21
294.755554530365
 31
0.0
  0
LINE
  5
29D
  8
DEFAULT
 10
272.744441986084
 20
294.755554530365
 30
0.0
 11
218.744441986084
 21
294.755554530365
 31
0.0
  0
LINE
  5
29E
  8
DEFAULT
 10
218.744441986084
 20
294.755554530365
 30
0.0
 11
218.744441986084
 21
260.755554530365
 31
0.0
  0
LINE
  5
29F
  8
DEFAULT
 10
218.744441986084
 20
260.755554530365
 30
0.0
 11
251.744441986084
 21
260.755554530365
 31
0.0
  0
LINE
  5
2A0
  8
DEFAULT
 10
251.744441986084
 20
260.755554530365
 30
0.0
 11
251.744441986084
 21
222.755554530365
 31
0.0
  0
CIRCLE
  5
2A1
  8
DEFAULT
 10
237.744437721815
 20
233.655552220554
 30
-0.0000000000000009
 40
1.5
  0
CIRCLE
  5
2A2
  8
DEFAULT
 10
237.744441986084
 20
247.655548426849
 30
0.0
 40
1.5
  0
CIRCLE
  5
2A3
  8
DEFAULT
 10
229.744440376023
 20
269.855566634378
 30
-0.0000000000000009
 40
1.5
  0
CIRCLE
  5
2A4
  8
DEFAULT
 10
229.744440376023
 20
283.855549406602
 30
-0.0000000000000009
 40
1.5
  0
CIRCLE
  5
2A5
  8
DEFAULT
 10
347.731105804444
 20
278.997101161224
 30
0.0
 40
2.5
  0
CIRCLE
  5
2A6
  8
DEFAULT
 10
327.731105804444
 20
278.997101161224
 30
-0.0000000000000018
 40
2.5
  0
CIRCLE
  5
2A7
  8
DEFAULT
 10
307.731105804444
 20
263.997101161224
 30
0.0
 40
9.5
  0
CIRCLE
  5
2A8
  8
DEFAULT
 10
307.731105804444
 20
250.997101161224
 30
-0.0000000000000018
 40
2.0
  0
CIRCLE
  5
2A9
  8
DEFAULT
 10
307.731105804444
 20
276.997101161224
 30
-0.0000000000000009
 40
2.0
  0
LINE
  5
2AA
  8
DEFAULT
 10
317.166378021241
 20
247.505432460052
 30
0.0
 11
354.731093253006
 21
268.997109197018
 31
0.0
  0
LINE
  5
2AB
  8
DEFAULT
 10
354.731105804444
 20
268.997101161224
 30
0.0
 11
354.731105804444
 21
293.997101161224
 31
0.0
  0
LINE
  5
2AC
  8
DEFAULT
 10
354.731105804444
 20
293.997101161224
 30
0.0
 11
297.731105804444
 21
293.997101161224
 31
0.0
  0
LINE
  5
2AD
  8
DEFAULT
 10
297.731105804444
 20
293.997101161224
 30
0.0
 11
289.712389692597
 21
270.024195792095
 31
0.0
  0
ARC
  5
2AE
  8
DEFAULT
 10
307.731105804444
 20
263.997101161224
 30
0.0
 40
19.000000004471
 50
161.505386151663
 51
299.774911228993
  0
CIRCLE
  5
2AF
  8
DEFAULT
 10
308.731105804444
 20
224.997101161224
 30
-0.0000000000000009
 40
2.5
  0
CIRCLE
  5
2B0
  8
DEFAULT
 10
328.731105804444
 20
224.997101161224
 30
-0.0000000000000009
 40
2.5
  0
CIRCLE
  5
2B1
  8
DEFAULT
 10
348.731105804444
 20
239.997101161224
 30
0.0
 40
9.5
  0
CIRCLE
  5
2B2
  8
DEFAULT
 10
348.731105804444
 20
252.997101161224
 30
-0.0000000000000009
 40
2.0
  0
CIRCLE
  5
2B3
  8
DEFAULT
 10
348.731105804444
 20
226.997101161224
 30
0.0
 40
2.0
  0
LINE
  5
2B4
  8
DEFAULT
 10
339.295833587647
 20
256.488769862396
 30
0.0
 11
301.731118355882
 21
234.997093125429
 31
0.0
  0
LINE
  5
2B5
  8
DEFAULT
 10
301.731105804444
 20
234.997101161224
 30
0.0
 11
301.731105804445
 21
209.997101161224
 31
0.0
  0
LINE
  5
2B6
  8
DEFAULT
 10
301.731105804444
 20
209.997101161224
 30
0.0
 11
358.731105804444
 21
209.997101161227
 31
0.0
  0
LINE
  5
2B7
  8
DEFAULT
 10
358.731105804444
 20
209.997101161224
 30
0.0
 11
366.749821916289
 21
233.970006530354
 31
0.0
  0
ARC
  5
2B8
  8
DEFAULT
 10
348.731105804444
 20
239.997101161224
 30
0.0
 40
19.000000004471
 50
341.5053861516659
 51
119.7749112289959
  0
LINE
  5
2B9
  8
DEFAULT
 10
273.795497894287
 20
49.24111208651701
 30
0.0
 11
273.864537283261
 21
49.24044999773101
 31
0.0
  0
LINE
  5
2BA
  8
DEFAULT
 10
273.726528167725
 20
49.244156214935
 30
0.0
 11
273.795503566178
 21
49.24111154751701
 31
0.0
  0
LINE
  5
2BB
  8
DEFAULT
 10
273.657711029053
 20
49.24958071444701
 30
0.0
 11
273.726540237699
 21
49.24415709678401
 31
0.0
  0
LINE
  5
2BC
  8
DEFAULT
 10
273.589107513428
 20
49.257377955658
 30
0.0
 11
273.657708507199
 21
49.24958185117801
 31
0.0
  0
LINE
  5
2BD
  8
DEFAULT
 10
273.520809173584
 20
49.267536494476
 30
0.0
 11
273.589100199379
 21
49.257377193945
 31
0.0
  0
LINE
  5
2BE
  8
DEFAULT
 10
273.452907562256
 20
49.28004488681
 30
0.0
 11
273.520807236369
 21
49.267534497257
 31
0.0
  0
LINE
  5
2BF
  8
DEFAULT
 10
273.385494232178
 20
49.294891688568
 30
0.0
 11
273.452921637284
 21
49.280045118861
 31
0.0
  0
LINE
  5
2C0
  8
DEFAULT
 10
273.318599700928
 20
49.312057826263
 30
0.0
 11
273.385474482515
 21
49.29489276934
 31
0.0
  0
LINE
  5
2C1
  8
DEFAULT
 10
273.252376556397
 20
49.33152041171201
 30
0.0
 11
273.318619018523
 21
49.31205732349601
 31
0.0
  0
LINE
  5
2C2
  8
DEFAULT
 10
273.186824798584
 20
49.353260371429
 30
0.0
 11
273.252355998856
 21
49.331522446449
 31
0.0
  0
LINE
  5
2C3
  8
DEFAULT
 10
273.122097015381
 20
49.377247187835
 30
0.0
 11
273.186838859028
 21
49.353260331588
 31
0.0
  0
LINE
  5
2C4
  8
DEFAULT
 10
273.058223724365
 20
49.40345415805
 30
0.0
 11
273.12209905731
 21
49.37724695612501
 31
0.0
  0
LINE
  5
2C5
  8
DEFAULT
 10
272.995296478272
 20
49.431846949798
 30
0.0
 11
273.058229179071
 21
49.403450633814
 31
0.0
  0
LINE
  5
2C6
  8
DEFAULT
 10
272.933376312256
 20
49.462398860199
 30
0.0
 11
272.995291382823
 21
49.431847270581
 31
0.0
  0
LINE
  5
2C7
  8
DEFAULT
 10
272.872554779053
 20
49.49507174227899
 30
0.0
 11
272.933378434027
 21
49.462401287934
 31
0.0
  0
LINE
  5
2C8
  8
DEFAULT
 10
272.812892913819
 20
49.529819819671
 30
0.0
 11
272.8725526685
 21
49.49506943459801
 31
0.0
  0
LINE
  5
2C9
  8
DEFAULT
 10
272.754451751709
 20
49.566608760101
 30
0.0
 11
272.812876508442
 21
49.52981985698901
 31
0.0
  0
LINE
  5
2CA
  8
DEFAULT
 10
272.697353363037
 20
49.605392787201
 30
0.0
 11
272.754473495935
 21
49.566609208082
 31
0.0
  0
LINE
  5
2CB
  8
DEFAULT
 10
272.641597747803
 20
49.646126124603
 30
0.0
 11
272.697345185722
 21
49.605394088601
 31
0.0
  0
LINE
  5
2CC
  8
DEFAULT
 10
272.587276458741
 20
49.688759181244
 30
0.0
 11
272.641584766407
 21
49.646127229496
 31
0.0
  0
LINE
  5
2CD
  8
DEFAULT
 10
272.534481048584
 20
49.733238551361
 30
0.0
 11
272.587285505762
 21
49.68875748917
 31
0.0
  0
LINE
  5
2CE
  8
DEFAULT
 10
272.483242034912
 20
49.77951464389
 30
0.0
 11
272.534479713531
 21
49.733237480178
 31
0.0
  0
LINE
  5
2CF
  8
DEFAULT
 10
272.433620452881
 20
49.82753405307
 30
0.0
 11
272.483230292031
 21
49.779515937208
 31
0.0
  0
LINE
  5
2D0
  8
DEFAULT
 10
272.385707855225
 20
49.877235743744
 30
0.0
 11
272.433630733923
 21
49.827533899827
 31
0.0
  0
LINE
  5
2D1
  8
DEFAULT
 10
272.339534759522
 20
49.92856249545301
 30
0.0
 11
272.385713567168
 21
49.877236154108
 31
0.0
  0
LINE
  5
2D2
  8
DEFAULT
 10
272.295162200928
 20
49.981453273041
 30
0.0
 11
272.339541905365
 21
49.92856360084001
 31
0.0
  0
LINE
  5
2D3
  8
DEFAULT
 10
272.252620697022
 20
50.03584322665399
 30
0.0
 11
272.295148410117
 21
49.98145325321801
 31
0.0
  0
LINE
  5
2D4
  8
DEFAULT
 10
272.212001800537
 20
50.09166750643899
 30
0.0
 11
272.252626841211
 21
50.035842049327
 31
0.0
  0
LINE
  5
2D5
  8
DEFAULT
 10
272.173336029053
 20
50.14886507724
 30
0.0
 11
272.212009983676
 21
50.09167066470499
 31
0.0
  0
LINE
  5
2D6
  8
DEFAULT
 10
272.136653900147
 20
50.207359645111
 30
0.0
 11
272.173330680238
 21
50.148864436815
 31
0.0
  0
LINE
  5
2D7
  8
DEFAULT
 10
272.102016448975
 20
50.267082545501
 30
0.0
 11
272.136652346121
 21
50.207356251289
 31
0.0
  0
LINE
  5
2D8
  8
DEFAULT
 10
272.069454193115
 20
50.327972743255
 30
0.0
 11
272.102007931064
 21
50.267086540081
 31
0.0
  0
LINE
  5
2D9
  8
DEFAULT
 10
272.039028167725
 20
50.389946315033
 30
0.0
 11
272.069460951571
 21
50.327972762135
 31
0.0
  0
LINE
  5
2DA
  8
DEFAULT
 10
272.010738372803
 20
50.452926966888
 30
0.0
 11
272.039013935223
 21
50.38993991932099
 31
0.0
  0
LINE
  5
2DB
  8
DEFAULT
 10
271.984676361084
 20
50.516853663666
 30
0.0
 11
272.010761005556
 21
50.45292818428399
 31
0.0
  0
LINE
  5
2DC
  8
DEFAULT
 10
271.960811614991
 20
50.581642482025
 30
0.0
 11
271.98467425595
 21
50.51685475203
 31
0.0
  0
LINE
  5
2DD
  8
DEFAULT
 10
271.939205169678
 20
50.647217128021
 30
0.0
 11
271.960817369566
 21
50.581644356176
 31
0.0
  0
LINE
  5
2DE
  8
DEFAULT
 10
271.919857025147
 20
50.71349367831399
 30
0.0
 11
271.939193028295
 21
50.64721400892999
 31
0.0
  0
LINE
  5
2DF
  8
DEFAULT
 10
271.902828216553
 20
50.780403468353
 30
0.0
 11
271.919864979882
 21
50.713495888164
 31
0.0
  0
LINE
  5
2E0
  8
DEFAULT
 10
271.888088226319
 20
50.847862574798
 30
0.0
 11
271.902805446795
 21
50.780406818833
 31
0.0
  0
LINE
  5
2E1
  8
DEFAULT
 10
271.875728607178
 20
50.915779444916
 30
0.0
 11
271.888108746013
 21
50.847855901472
 31
0.0
  0
LINE
  5
2E2
  8
DEFAULT
 10
271.865688323975
 20
50.984093043548
 30
0.0
 11
271.875716627522
 21
50.915782658398
 31
0.0
  0
LINE
  5
2E3
  8
DEFAULT
 10
271.858028411865
 20
51.05271181796199
 30
0.0
 11
271.865692929206
 21
50.98409599788199
 31
0.0
  0
LINE
  5
2E4
  8
DEFAULT
 10
271.85274887085
 20
51.121551844818
 30
0.0
 11
271.858040468034
 21
51.052712360576
 31
0.0
  0
LINE
  5
2E5
  8
DEFAULT
 10
271.84981918335
 20
51.190529200775
 30
0.0
 11
271.852731554281
 21
51.121548089686
 31
0.0
  0
LINE
  5
2E6
  8
DEFAULT
 10
271.849300384522
 20
51.259567591888
 30
0.0
 11
271.849830058473
 21
51.190527060047
 31
0.0
  0
LINE
  5
2E7
  8
DEFAULT
 10
271.851161956787
 20
51.32859072421199
 30
0.0
 11
271.849308302536
 21
51.259573048525
 31
0.0
  0
LINE
  5
2E8
  8
DEFAULT
 10
271.855373382569
 20
51.397499415619
 30
0.0
 11
271.851138609149
 21
51.32858684575299
 31
0.0
  0
LINE
  5
2E9
  8
DEFAULT
 10
271.861995697022
 20
51.466225001556
 30
0.0
 11
271.855384851094
 21
51.397499661924
 31
0.0
  0
LINE
  5
2EA
  8
DEFAULT
 10
271.870967864991
 20
51.534683558685
 30
0.0
 11
271.861988824824
 21
51.46622735057299
 31
0.0
  0
LINE
  5
2EB
  8
DEFAULT
 10
271.882320404053
 20
51.602783534271
 30
0.0
 11
271.87098387014
 21
51.534678038235
 31
0.0
  0
LINE
  5
2EC
  8
DEFAULT
 10
271.895992279053
 20
51.670463893158
 30
0.0
 11
271.882311761355
 21
51.60279027180499
 31
0.0
  0
LINE
  5
2ED
  8
DEFAULT
 10
271.912014007569
 20
51.737625453216
 30
0.0
 11
271.896005809417
 21
51.670464354481
 31
0.0
  0
LINE
  5
2EE
  8
DEFAULT
 10
271.930324554444
 20
51.804191920501
 30
0.0
 11
271.912007753111
 21
51.737623381533
 31
0.0
  0
LINE
  5
2EF
  8
DEFAULT
 10
271.950923919678
 20
51.870087001068
 30
0.0
 11
271.930320343642
 21
51.804190352853
 31
0.0
  0
LINE
  5
2F0
  8
DEFAULT
 10
271.973781585694
 20
51.93523440097
 30
0.0
 11
271.950915788626
 21
51.870088173789
 31
0.0
  0
LINE
  5
2F1
  8
DEFAULT
 10
271.998897552491
 20
51.999550196869
 30
0.0
 11
271.973796783993
 21
51.935232026712
 31
0.0
  0
LINE
  5
2F2
  8
DEFAULT
 10
272.026180267334
 20
52.06296572421199
 30
0.0
 11
271.998874440468
 21
51.99955226025899
 31
0.0
  0
LINE
  5
2F3
  8
DEFAULT
 10
272.055660247803
 20
52.12539705966199
 30
0.0
 11
272.026181903437
 21
52.062963872935
 31
0.0
  0
LINE
  5
2F4
  8
DEFAULT
 10
272.087276458741
 20
52.186775538666
 30
0.0
 11
272.055660726775
 21
52.125397031974
 31
0.0
  0
LINE
  5
2F5
  8
DEFAULT
 10
272.120998382569
 20
52.24702486727899
 30
0.0
 11
272.087282940069
 21
52.18677418654799
 31
0.0
  0
LINE
  5
2F6
  8
DEFAULT
 10
272.156764984131
 20
52.306076380951
 30
0.0
 11
272.120990010428
 21
52.247025328056
 31
0.0
  0
LINE
  5
2F7
  8
DEFAULT
 10
272.194576263428
 20
52.36386141513
 30
0.0
 11
272.156784392233
 21
52.306080362328
 31
0.0
  0
LINE
  5
2F8
  8
DEFAULT
 10
272.234340667725
 20
52.420303675873
 30
0.0
 11
272.194576936325
 21
52.36386148193399
 31
0.0
  0
LINE
  5
2F9
  8
DEFAULT
 10
272.276027679444
 20
52.475334498626
 30
0.0
 11
272.234339475029
 21
52.420298426782
 31
0.0
  0
LINE
  5
2FA
  8
DEFAULT
 10
272.319576263428
 20
52.52890047763
 30
0.0
 11
272.27601326662
 21
52.47533611540599
 31
0.0
  0
LINE
  5
2FB
  8
DEFAULT
 10
272.3649559021
 20
52.580932948334
 30
0.0
 11
272.319570027744
 21
52.528904129392
 31
0.0
  0
LINE
  5
2FC
  8
DEFAULT
 10
272.412136077881
 20
52.631363246185
 30
0.0
 11
272.364981413183
 21
52.580931974254
 31
0.0
  0
LINE
  5
2FD
  8
DEFAULT
 10
272.460994720459
 20
52.680137965423
 30
0.0
 11
272.412127460523
 21
52.631364340402
 31
0.0
  0
LINE
  5
2FE
  8
DEFAULT
 10
272.511501312256
 20
52.72719607089199
 30
0.0
 11
272.460979693119
 21
52.680138217231
 31
0.0
  0
LINE
  5
2FF
  8
DEFAULT
 10
272.563625335694
 20
52.772476527435
 30
0.0
 11
272.511509564924
 21
52.72719052486799
 31
0.0
  0
LINE
  5
300
  8
DEFAULT
 10
275.627803802491
 20
55.343628260834
 30
0.0
 11
272.563626030015
 21
52.772477822087
 31
0.0
  0
LINE
  5
301
  8
DEFAULT
 10
275.681453704834
 20
55.387092921478
 30
0.0
 11
275.627805889781
 21
55.34363273819
 31
0.0
  0
LINE
  5
302
  8
DEFAULT
 10
275.736568450928
 20
55.428673121673
 30
0.0
 11
275.681452524706
 21
55.387090549986
 31
0.0
  0
LINE
  5
303
  8
DEFAULT
 10
275.793087005615
 20
55.46833071444699
 30
0.0
 11
275.736568650916
 21
55.42867530909599
 31
0.0
  0
LINE
  5
304
  8
DEFAULT
 10
275.850948333741
 20
55.50601229403699
 30
0.0
 11
275.793094904555
 21
55.46833131311899
 31
0.0
  0
LINE
  5
305
  8
DEFAULT
 10
275.910060882569
 20
55.541672084076
 30
0.0
 11
275.850941323922
 21
55.506010432728
 31
0.0
  0
LINE
  5
306
  8
DEFAULT
 10
275.970363616944
 20
55.575271937591
 30
0.0
 11
275.910048382731
 21
55.541672114478
 31
0.0
  0
LINE
  5
307
  8
DEFAULT
 10
276.031826019287
 20
55.606766078216
 30
0.0
 11
275.970386988312
 21
55.57526812488099
 31
0.0
  0
LINE
  5
308
  8
DEFAULT
 10
276.094295501709
 20
55.636123988373
 30
0.0
 11
276.031805892027
 21
55.606765441522
 31
0.0
  0
LINE
  5
309
  8
DEFAULT
 10
276.157772064209
 20
55.66331515048199
 30
0.0
 11
276.094306345868
 21
55.636130997251
 31
0.0
  0
LINE
  5
30A
  8
DEFAULT
 10
276.222133636475
 20
55.688286158783
 30
0.0
 11
276.157767442771
 21
55.66330879504
 31
0.0
  0
LINE
  5
30B
  8
DEFAULT
 10
276.28731918335
 20
55.71102938388
 30
0.0
 11
276.222129220693
 21
55.68828857562299
 31
0.0
  0
LINE
  5
30C
  8
DEFAULT
 10
276.353267669678
 20
55.73150667880199
 30
0.0
 11
276.287331626178
 21
55.711029526681
 31
0.0
  0
LINE
  5
30D
  8
DEFAULT
 10
276.419857025147
 20
55.749695155365
 30
0.0
 11
276.353253478033
 21
55.73150606238799
 31
0.0
  0
LINE
  5
30E
  8
DEFAULT
 10
276.487056732178
 20
55.76557192538399
 30
0.0
 11
276.419865054156
 21
55.74969256783899
 31
0.0
  0
LINE
  5
30F
  8
DEFAULT
 10
276.554744720459
 20
55.779129359466
 30
0.0
 11
276.487044985122
 21
55.765578661082
 31
0.0
  0
LINE
  5
310
  8
DEFAULT
 10
276.622890472412
 20
55.790329310638
 30
0.0
 11
276.554763358813
 21
55.779123420039
 31
0.0
  0
LINE
  5
311
  8
DEFAULT
 10
276.691371917725
 20
55.79917940829399
 30
0.0
 11
276.622898614233
 21
55.790331679752
 31
0.0
  0
LINE
  5
312
  8
DEFAULT
 10
276.760097503662
 20
55.805656764251
 30
0.0
 11
276.691359611208
 21
55.79917774177
 31
0.0
  0
LINE
  5
313
  8
DEFAULT
 10
276.829006195069
 20
55.80976137850899
 30
0.0
 11
276.760085629896
 21
55.805658783263
 31
0.0
  0
LINE
  5
314
  8
DEFAULT
 10
276.898036956787
 20
55.811485621673
 30
0.0
 11
276.829015852837
 21
55.80976434280299
 31
0.0
  0
LINE
  5
315
  8
DEFAULT
 10
276.967067718506
 20
55.81082186434899
 30
0.0
 11
276.898028329532
 21
55.811483953135
 31
0.0
  0
LINE
  5
316
  8
DEFAULT
 10
277.036067962647
 20
55.807777735931
 30
0.0
 11
276.967092564194
 21
55.81082240334899
 31
0.0
  0
LINE
  5
317
  8
DEFAULT
 10
277.104885101319
 20
55.80235323641899
 30
0.0
 11
277.036055892672
 21
55.80777685408199
 31
0.0
  0
LINE
  5
318
  8
DEFAULT
 10
277.173488616944
 20
55.794555995208
 30
0.0
 11
277.104887623173
 21
55.80235209968799
 31
0.0
  0
LINE
  5
319
  8
DEFAULT
 10
277.241786956787
 20
55.784393641693
 30
0.0
 11
277.173495930992
 21
55.794552942224
 31
0.0
  0
LINE
  5
31A
  8
DEFAULT
 10
277.309688568115
 20
55.771889064056
 30
0.0
 11
277.241788894002
 21
55.784399453609
 31
0.0
  0
LINE
  5
31B
  8
DEFAULT
 10
277.377101898194
 20
55.757042262298
 30
0.0
 11
277.309674493087
 21
55.771888832005
 31
0.0
  0
LINE
  5
31C
  8
DEFAULT
 10
277.443965911865
 20
55.739876124603
 30
0.0
 11
277.377091130279
 21
55.75704118152599
 31
0.0
  0
LINE
  5
31D
  8
DEFAULT
 10
277.510219573975
 20
55.72041353915399
 30
0.0
 11
277.443977111849
 21
55.73987662736999
 31
0.0
  0
LINE
  5
31E
  8
DEFAULT
 10
277.575740814209
 20
55.69867739413399
 30
0.0
 11
277.510209613938
 21
55.720415319114
 31
0.0
  0
LINE
  5
31F
  8
DEFAULT
 10
277.640499114991
 20
55.674682948334
 30
0.0
 11
277.575757271344
 21
55.698669804581
 31
0.0
  0
LINE
  5
320
  8
DEFAULT
 10
277.704372406006
 20
55.648475978119
 30
0.0
 11
277.640497073062
 21
55.674683180044
 31
0.0
  0
LINE
  5
321
  8
DEFAULT
 10
277.7672996521
 20
55.620087001068
 30
0.0
 11
277.7043669513
 21
55.648483317052
 31
0.0
  0
LINE
  5
322
  8
DEFAULT
 10
277.829219818115
 20
55.58953127597
 30
0.0
 11
277.767304747549
 21
55.620082865588
 31
0.0
  0
LINE
  5
323
  8
DEFAULT
 10
277.890041351319
 20
55.55686220858699
 30
0.0
 11
277.829217696345
 21
55.589532662932
 31
0.0
  0
LINE
  5
324
  8
DEFAULT
 10
277.949703216553
 20
55.522110316498
 30
0.0
 11
277.890043461871
 21
55.556860701571
 31
0.0
  0
LINE
  5
325
  8
DEFAULT
 10
278.008113861084
 20
55.485321376068
 30
0.0
 11
277.949689104351
 21
55.522110279179
 31
0.0
  0
LINE
  5
326
  8
DEFAULT
 10
278.065242767334
 20
55.446541163666
 30
0.0
 11
278.008122634437
 21
55.485324742784
 31
0.0
  0
LINE
  5
327
  8
DEFAULT
 10
278.120998382569
 20
55.405807826263
 30
0.0
 11
278.065250944649
 21
55.446539862265
 31
0.0
  0
LINE
  5
328
  8
DEFAULT
 10
278.175289154053
 20
55.363174769623
 30
0.0
 11
278.120980846386
 21
55.40580672137
 31
0.0
  0
LINE
  5
329
  8
DEFAULT
 10
278.228115081787
 20
55.318695399505
 30
0.0
 11
278.17531062461
 21
55.363176461696
 31
0.0
  0
LINE
  5
32A
  8
DEFAULT
 10
278.279354095459
 20
55.27241549227899
 30
0.0
 11
278.228116416841
 21
55.318692655991
 31
0.0
  0
LINE
  5
32B
  8
DEFAULT
 10
278.328945159912
 20
55.22439608309899
 30
0.0
 11
278.279335320763
 21
55.272414198961
 31
0.0
  0
LINE
  5
32C
  8
DEFAULT
 10
278.376888275147
 20
55.174698207123
 30
0.0
 11
278.328965396448
 21
55.224400051039
 31
0.0
  0
LINE
  5
32D
  8
DEFAULT
 10
278.42306137085
 20
55.123367640716
 30
0.0
 11
278.376882563203
 21
55.174693982061
 31
0.0
  0
LINE
  5
32E
  8
DEFAULT
 10
278.467433929444
 20
55.070480677826
 30
0.0
 11
278.423054225007
 21
55.123370350027
 31
0.0
  0
LINE
  5
32F
  8
DEFAULT
 10
278.509944915772
 20
55.01609072421199
 30
0.0
 11
278.467417202677
 21
55.07048069764799
 31
0.0
  0
LINE
  5
330
  8
DEFAULT
 10
278.550594329834
 20
54.96026644442699
 30
0.0
 11
278.509969289161
 21
55.016091901539
 31
0.0
  0
LINE
  5
331
  8
DEFAULT
 10
278.589260101319
 20
54.903068873626
 30
0.0
 11
278.550586146695
 21
54.96026328616099
 31
0.0
  0
LINE
  5
332
  8
DEFAULT
 10
278.625942230225
 20
54.844574305755
 30
0.0
 11
278.589265450134
 21
54.903069514051
 31
0.0
  0
LINE
  5
333
  8
DEFAULT
 10
278.660579681397
 20
54.784851405365
 30
0.0
 11
278.62594378425
 21
54.844577699577
 31
0.0
  0
LINE
  5
334
  8
DEFAULT
 10
278.693111419678
 20
54.723961207611
 30
0.0
 11
278.660557681729
 21
54.78484741078499
 31
0.0
  0
LINE
  5
335
  8
DEFAULT
 10
278.723567962647
 20
54.661987635834
 30
0.0
 11
278.693135178801
 21
54.72396118873199
 31
0.0
  0
LINE
  5
336
  8
DEFAULT
 10
278.751827239991
 20
54.598999354584
 30
0.0
 11
278.723551677571
 21
54.661986402151
 31
0.0
  0
LINE
  5
337
  8
DEFAULT
 10
278.777919769287
 20
54.535080287201
 30
0.0
 11
278.751835124815
 21
54.59900576658299
 31
0.0
  0
LINE
  5
338
  8
DEFAULT
 10
278.801784515381
 20
54.470291468841
 30
0.0
 11
278.777921874421
 21
54.535079198836
 31
0.0
  0
LINE
  5
339
  8
DEFAULT
 10
278.823390960694
 20
54.404716822845
 30
0.0
 11
278.801778760806
 21
54.47028959469
 31
0.0
  0
LINE
  5
33A
  8
DEFAULT
 10
278.842739105225
 20
54.338432643158
 30
0.0
 11
278.823403102076
 21
54.404712312542
 31
0.0
  0
LINE
  5
33B
  8
DEFAULT
 10
278.859767913819
 20
54.271530482513
 30
0.0
 11
278.842731150489
 21
54.338438062702
 31
0.0
  0
LINE
  5
33C
  8
DEFAULT
 10
278.874477386475
 20
54.204071376068
 30
0.0
 11
278.859760165998
 21
54.271527132033
 31
0.0
  0
LINE
  5
33D
  8
DEFAULT
 10
278.886867523194
 20
54.136146876556
 30
0.0
 11
278.874487384359
 21
54.204070419999
 31
0.0
  0
LINE
  5
33E
  8
DEFAULT
 10
278.896877288819
 20
54.067840907318
 30
0.0
 11
278.886848985271
 21
54.136151292468
 31
0.0
  0
LINE
  5
33F
  8
DEFAULT
 10
278.904567718506
 20
53.99922213290399
 30
0.0
 11
278.896903201165
 21
54.067837952985
 31
0.0
  0
LINE
  5
340
  8
DEFAULT
 10
278.909847259522
 20
53.930382106048
 30
0.0
 11
278.904555662337
 21
53.99922159028999
 31
0.0
  0
LINE
  5
341
  8
DEFAULT
 10
278.912746429444
 20
53.861404750091
 30
0.0
 11
278.909834058512
 21
53.93038586118
 31
0.0
  0
LINE
  5
342
  8
DEFAULT
 10
278.91329574585
 20
53.792358729584
 30
0.0
 11
278.912766071899
 21
53.86139926142499
 31
0.0
  0
LINE
  5
343
  8
DEFAULT
 10
278.911434173584
 20
53.72334322665399
 30
0.0
 11
278.913287827836
 21
53.792360902342
 31
0.0
  0
LINE
  5
344
  8
DEFAULT
 10
278.907192230225
 20
53.654434535248
 30
0.0
 11
278.911427003644
 21
53.72334710511299
 31
0.0
  0
LINE
  5
345
  8
DEFAULT
 10
278.90060043335
 20
53.58570894931
 30
0.0
 11
278.907211279278
 21
53.654434288942
 31
0.0
  0
LINE
  5
346
  8
DEFAULT
 10
278.891597747803
 20
53.517250392181
 30
0.0
 11
278.90057678797
 21
53.585706600294
 31
0.0
  0
LINE
  5
347
  8
DEFAULT
 10
278.880275726319
 20
53.449142787201
 30
0.0
 11
278.891612260232
 21
53.517248283236
 31
0.0
  0
LINE
  5
348
  8
DEFAULT
 10
278.866603851319
 20
53.381470057708
 30
0.0
 11
278.880284369017
 21
53.449143679061
 31
0.0
  0
LINE
  5
349
  8
DEFAULT
 10
278.850582122803
 20
53.31430849765
 30
0.0
 11
278.866590320955
 21
53.381469596386
 31
0.0
  0
LINE
  5
34A
  8
DEFAULT
 10
278.832271575928
 20
53.247742030365
 30
0.0
 11
278.850588377261
 21
53.314310569333
 31
0.0
  0
LINE
  5
34B
  8
DEFAULT
 10
278.811672210694
 20
53.181846949798
 30
0.0
 11
278.832275786729
 21
53.247743598013
 31
0.0
  0
LINE
  5
34C
  8
DEFAULT
 10
278.788814544678
 20
53.116699549896
 30
0.0
 11
278.811680341746
 21
53.181845777077
 31
0.0
  0
LINE
  5
34D
  8
DEFAULT
 10
278.763698577881
 20
53.052383753998
 30
0.0
 11
278.788799346378
 21
53.116701924154
 31
0.0
  0
LINE
  5
34E
  8
DEFAULT
 10
278.736385345459
 20
52.98896822665399
 30
0.0
 11
278.763691172326
 21
53.05238169060699
 31
0.0
  0
LINE
  5
34F
  8
DEFAULT
 10
278.706905364991
 20
52.926536891205
 30
0.0
 11
278.736383709356
 21
52.988970077932
 31
0.0
  0
LINE
  5
350
  8
DEFAULT
 10
278.675289154053
 20
52.865158412201
 30
0.0
 11
278.706904886018
 21
52.92653691889299
 31
0.0
  0
LINE
  5
351
  8
DEFAULT
 10
278.641597747803
 20
52.804901454193
 30
0.0
 11
278.675313190302
 21
52.865152134924
 31
0.0
  0
LINE
  5
352
  8
DEFAULT
 10
278.605800628662
 20
52.745849940521
 30
0.0
 11
278.641575602366
 21
52.804900993415
 31
0.0
  0
LINE
  5
353
  8
DEFAULT
 10
278.568019866944
 20
52.688072535736
 30
0.0
 11
278.605811738139
 21
52.74585358853899
 31
0.0
  0
LINE
  5
354
  8
DEFAULT
 10
278.528255462647
 20
52.631630274994
 30
0.0
 11
278.568019194047
 21
52.68807246893199
 31
0.0
  0
LINE
  5
355
  8
DEFAULT
 10
278.486568450928
 20
52.576591822845
 30
0.0
 11
278.528256655343
 21
52.63162789469
 31
0.0
  0
LINE
  5
356
  8
DEFAULT
 10
278.442989349365
 20
52.523033473236
 30
0.0
 11
278.486552346174
 21
52.57659783545999
 31
0.0
  0
LINE
  5
357
  8
DEFAULT
 10
278.397609710694
 20
52.471001002533
 30
0.0
 11
278.442995585049
 21
52.523029821474
 31
0.0
  0
LINE
  5
358
  8
DEFAULT
 10
278.350460052491
 20
52.420570704681
 30
0.0
 11
278.397614717189
 21
52.471001976612
 31
0.0
  0
LINE
  5
359
  8
DEFAULT
 10
278.301601409912
 20
52.371795985443
 30
0.0
 11
278.350468669849
 21
52.420569610464
 31
0.0
  0
LINE
  5
35A
  8
DEFAULT
 10
278.251064300537
 20
52.32473787997399
 30
0.0
 11
278.301585919675
 21
52.371795733635
 31
0.0
  0
LINE
  5
35B
  8
DEFAULT
 10
278.198970794678
 20
52.27944979403699
 30
0.0
 11
278.251086565447
 21
52.324735796604
 31
0.0
  0
LINE
  5
35C
  8
DEFAULT
 10
275.134792327881
 20
49.708301875335
 30
0.0
 11
278.198970100357
 21
52.27945231408199
 31
0.0
  0
LINE
  5
35D
  8
DEFAULT
 10
275.081142425537
 20
49.664841029388
 30
0.0
 11
275.134790240591
 21
49.708301212677
 31
0.0
  0
LINE
  5
35E
  8
DEFAULT
 10
275.026027679444
 20
49.623260829193
 30
0.0
 11
275.081143605665
 21
49.664843400881
 31
0.0
  0
LINE
  5
35F
  8
DEFAULT
 10
274.969509124756
 20
49.58360323641899
 30
0.0
 11
275.026027479455
 21
49.62325864177001
 31
0.0
  0
LINE
  5
360
  8
DEFAULT
 10
274.911647796631
 20
49.54592165683
 30
0.0
 11
274.969501225817
 21
49.58360263774701
 31
0.0
  0
LINE
  5
361
  8
DEFAULT
 10
274.852535247803
 20
49.510261866791
 30
0.0
 11
274.91165480645
 21
49.545923518138
 31
0.0
  0
LINE
  5
362
  8
DEFAULT
 10
274.79220199585
 20
49.476662013275
 30
0.0
 11
274.852517230063
 21
49.510261836388
 31
0.0
  0
LINE
  5
363
  8
DEFAULT
 10
274.730770111084
 20
49.44516405795301
 30
0.0
 11
274.792209142059
 21
49.476662011288
 31
0.0
  0
LINE
  5
364
  8
DEFAULT
 10
274.668270111084
 20
49.415806147796
 30
0.0
 11
274.730759720767
 21
49.445164694647
 31
0.0
  0
LINE
  5
365
  8
DEFAULT
 10
274.604824066162
 20
49.38861880038399
 30
0.0
 11
274.668289784503
 21
49.41580295361599
 31
0.0
  0
LINE
  5
366
  8
DEFAULT
 10
274.540462493897
 20
49.363643977386
 30
0.0
 11
274.6048286876
 21
49.388621341129
 31
0.0
  0
LINE
  5
367
  8
DEFAULT
 10
274.475246429444
 20
49.340900752289
 30
0.0
 11
274.540436392101
 21
49.363641560546
 31
0.0
  0
LINE
  5
368
  8
DEFAULT
 10
274.409328460694
 20
49.320423457367
 30
0.0
 11
274.475264504194
 21
49.340900609488
 31
0.0
  0
LINE
  5
369
  8
DEFAULT
 10
274.342708587647
 20
49.302234980804
 30
0.0
 11
274.409312134761
 21
49.320424073781
 31
0.0
  0
LINE
  5
36A
  8
DEFAULT
 10
274.275539398194
 20
49.286358210785
 30
0.0
 11
274.342731076215
 21
49.30223756833
 31
0.0
  0
LINE
  5
36B
  8
DEFAULT
 10
274.207820892334
 20
49.2728045914
 30
0.0
 11
274.275520627672
 21
49.286355289784
 31
0.0
  0
LINE
  5
36C
  8
DEFAULT
 10
274.139705657959
 20
49.261600825531
 30
0.0
 11
274.207832771558
 21
49.27280671613001
 31
0.0
  0
LINE
  5
36D
  8
DEFAULT
 10
274.071224212647
 20
49.252750727875
 30
0.0
 11
274.139697516138
 21
49.261598456417
 31
0.0
  0
LINE
  5
36E
  8
DEFAULT
 10
274.002498626709
 20
49.246273371917
 30
0.0
 11
274.071236519164
 21
49.252752394399
 31
0.0
  0
LINE
  5
36F
  8
DEFAULT
 10
273.933559417725
 20
49.24217257235701
 30
0.0
 11
274.002479982897
 21
49.246275167603
 31
0.0
  0
LINE
  5
370
  8
DEFAULT
 10
273.864559173584
 20
49.240448329193
 30
0.0
 11
273.933580277534
 21
49.24216960806299
 31
0.0
  0
ARC
  5
371
  8
DEFAULT
 10
283.579189300537
 20
45.515236232025
 30
0.0
 40
22.210670681312
 50
134.5800014990459
 51
206.7375143976439
  0
ARC
  5
372
  8
DEFAULT
 10
240.233943939209
 20
92.857216212494
 30
0.0
 40
42.0
 50
311.3643141506669
 51
128.635685849335
  0
ARC
  5
373
  8
DEFAULT
 10
199.517436981201
 20
146.944031092865
 30
0.0
 40
25.746052487135
 50
235.83533834071
 51
304.258435048096
  0
ARC
  5
374
  8
DEFAULT
 10
230.25736618042
 20
106.606560084564
 30
0.0
 40
49.042756085839
 50
130.228292298619
 51
157.162408473168
  0
ARC
  5
375
  8
DEFAULT
 10
240.999996185303
 20
93.500000331146
 30
0.0
 40
65.987803063838
 50
310.0
 51
130.0
  0
ARC
  5
376
  8
DEFAULT
 10
262.356014251709
 20
68.962761256439
 30
0.0
 40
33.468959316645
 50
272.375671888685
 51
308.9943236272379
  0
LINE
  5
377
  8
DEFAULT
 10
205.032909393311
 20
131.189178797943
 30
0.0
 11
205.101948782285
 21
131.188516709157
 31
0.0
  0
LINE
  5
378
  8
DEFAULT
 10
204.963939666748
 20
131.192230555755
 30
0.0
 11
205.032915065201
 21
131.189185888337
 31
0.0
  0
LINE
  5
379
  8
DEFAULT
 10
204.895107269287
 20
131.197647425873
 30
0.0
 11
204.963936477934
 21
131.19222380821
 31
0.0
  0
LINE
  5
37A
  8
DEFAULT
 10
204.826503753662
 20
131.205444667084
 30
0.0
 11
204.895104747433
 21
131.197648562604
 31
0.0
  0
LINE
  5
37B
  8
DEFAULT
 10
204.758220672608
 20
131.215607020599
 30
0.0
 11
204.826511698403
 21
131.205447720068
 31
0.0
  0
LINE
  5
37C
  8
DEFAULT
 10
204.69031906128
 20
131.22811922763
 30
0.0
 11
204.758218735393
 21
131.215608838077
 31
0.0
  0
LINE
  5
37D
  8
DEFAULT
 10
204.622890472412
 20
131.242966029388
 30
0.0
 11
204.690317877519
 21
131.228119459681
 31
0.0
  0
LINE
  5
37E
  8
DEFAULT
 10
204.556011199951
 20
131.260132167084
 30
0.0
 11
204.622885981538
 21
131.24296711016
 31
0.0
  0
LINE
  5
37F
  8
DEFAULT
 10
204.489772796631
 20
131.279587123138
 30
0.0
 11
204.556015258757
 21
131.260124034922
 31
0.0
  0
LINE
  5
380
  8
DEFAULT
 10
204.424236297608
 20
131.301330897552
 30
0.0
 11
204.489767497879
 21
131.279592972572
 31
0.0
  0
LINE
  5
381
  8
DEFAULT
 10
204.359493255615
 20
131.325317713958
 30
0.0
 11
204.424235099262
 21
131.301330857711
 31
0.0
  0
LINE
  5
382
  8
DEFAULT
 10
204.2956199646
 20
131.351517054779
 30
0.0
 11
204.359495297544
 21
131.325309852854
 31
0.0
  0
LINE
  5
383
  8
DEFAULT
 10
204.232692718506
 20
131.379913661224
 30
0.0
 11
204.295625419306
 21
131.35151734524
 31
0.0
  0
LINE
  5
384
  8
DEFAULT
 10
204.170772552491
 20
131.410461756927
 30
0.0
 11
204.232687623057
 21
131.379910167309
 31
0.0
  0
LINE
  5
385
  8
DEFAULT
 10
204.109951019287
 20
131.443146083099
 30
0.0
 11
204.170774674261
 21
131.410475628755
 31
0.0
  0
LINE
  5
386
  8
DEFAULT
 10
204.050289154053
 20
131.477890345794
 30
0.0
 11
204.109948908735
 21
131.443139960721
 31
0.0
  0
LINE
  5
387
  8
DEFAULT
 10
203.991863250733
 20
131.514679286224
 30
0.0
 11
204.050288007466
 21
131.477890383113
 31
0.0
  0
LINE
  5
388
  8
DEFAULT
 10
203.934749603272
 20
131.553467128021
 30
0.0
 11
203.991869736169
 21
131.514683548902
 31
0.0
  0
LINE
  5
389
  8
DEFAULT
 10
203.878993988037
 20
131.594192836029
 30
0.0
 11
203.934741425957
 21
131.553460800027
 31
0.0
  0
LINE
  5
38A
  8
DEFAULT
 10
203.824687957764
 20
131.636825892669
 30
0.0
 11
203.878996265431
 21
131.594193940922
 31
0.0
  0
LINE
  5
38B
  8
DEFAULT
 10
203.771892547608
 20
131.681305262787
 30
0.0
 11
203.824697004785
 21
131.636824200596
 31
0.0
  0
LINE
  5
38C
  8
DEFAULT
 10
203.720653533936
 20
131.727585170013
 30
0.0
 11
203.771891212554
 21
131.681308006301
 31
0.0
  0
LINE
  5
38D
  8
DEFAULT
 10
203.671047210694
 20
131.775604579193
 30
0.0
 11
203.720657049843
 21
131.727586463331
 31
0.0
  0
LINE
  5
38E
  8
DEFAULT
 10
203.623119354248
 20
131.825302455169
 30
0.0
 11
203.671042232947
 21
131.775600611253
 31
0.0
  0
LINE
  5
38F
  8
DEFAULT
 10
203.576946258545
 20
131.876633021576
 30
0.0
 11
203.623125066192
 21
131.825306680231
 31
0.0
  0
LINE
  5
390
  8
DEFAULT
 10
203.532558441162
 20
131.929519984466
 30
0.0
 11
203.576938145599
 21
131.876630312265
 31
0.0
  0
LINE
  5
391
  8
DEFAULT
 10
203.490032196045
 20
131.983917567474
 30
0.0
 11
203.53255990914
 21
131.929527594038
 31
0.0
  0
LINE
  5
392
  8
DEFAULT
 10
203.449413299561
 20
132.039734217865
 30
0.0
 11
203.490038340234
 21
131.983908760753
 31
0.0
  0
LINE
  5
393
  8
DEFAULT
 10
203.410732269287
 20
132.096924159271
 30
0.0
 11
203.449406223911
 21
132.039729746736
 31
0.0
  0
LINE
  5
394
  8
DEFAULT
 10
203.374050140381
 20
132.155426356537
 30
0.0
 11
203.410726920472
 21
132.096931148241
 31
0.0
  0
LINE
  5
395
  8
DEFAULT
 10
203.339412689209
 20
132.215149256927
 30
0.0
 11
203.374048586356
 21
132.155422962715
 31
0.0
  0
LINE
  5
396
  8
DEFAULT
 10
203.306865692139
 20
132.276031825287
 30
0.0
 11
203.339419430088
 21
132.215145622112
 31
0.0
  0
LINE
  5
397
  8
DEFAULT
 10
203.276439666748
 20
132.338013026458
 30
0.0
 11
203.306872450594
 21
132.27603947356
 31
0.0
  0
LINE
  5
398
  8
DEFAULT
 10
203.248165130615
 20
132.401001307708
 30
0.0
 11
203.276440693035
 21
132.338014260141
 31
0.0
  0
LINE
  5
399
  8
DEFAULT
 10
203.222072601319
 20
132.464920375091
 30
0.0
 11
203.24815724579
 21
132.400994895709
 31
0.0
  0
LINE
  5
39A
  8
DEFAULT
 10
203.198207855225
 20
132.529709193451
 30
0.0
 11
203.222070496185
 21
132.464921463456
 31
0.0
  0
LINE
  5
39B
  8
DEFAULT
 10
203.176601409912
 20
132.595291468841
 30
0.0
 11
203.1982136098
 21
132.529718696996
 31
0.0
  0
LINE
  5
39C
  8
DEFAULT
 10
203.15726852417
 20
132.66156038974
 30
0.0
 11
203.176604527319
 21
132.595280720356
 31
0.0
  0
LINE
  5
39D
  8
DEFAULT
 10
203.140224456787
 20
132.728470179779
 30
0.0
 11
203.157261220117
 21
132.66156259959
 31
0.0
  0
LINE
  5
39E
  8
DEFAULT
 10
203.125514984131
 20
132.795929286224
 30
0.0
 11
203.140232204608
 21
132.728473530259
 31
0.0
  0
LINE
  5
39F
  8
DEFAULT
 10
203.113124847412
 20
132.863846156341
 30
0.0
 11
203.125504986247
 21
132.795922612898
 31
0.0
  0
LINE
  5
3A0
  8
DEFAULT
 10
203.103099822998
 20
132.932159754974
 30
0.0
 11
203.113128126546
 21
132.863849369824
 31
0.0
  0
LINE
  5
3A1
  8
DEFAULT
 10
203.095439910889
 20
133.000778529388
 30
0.0
 11
203.10310442823
 21
132.932162709307
 31
0.0
  0
LINE
  5
3A2
  8
DEFAULT
 10
203.090145111084
 20
133.069610926849
 30
0.0
 11
203.095436708269
 21
133.000771442607
 31
0.0
  0
LINE
  5
3A3
  8
DEFAULT
 10
203.087230682373
 20
133.138595912201
 30
0.0
 11
203.090143053305
 21
133.069614801112
 31
0.0
  0
LINE
  5
3A4
  8
DEFAULT
 10
203.086696624756
 20
133.207641932708
 30
0.0
 11
203.087226298707
 21
133.138601400867
 31
0.0
  0
LINE
  5
3A5
  8
DEFAULT
 10
203.088558197022
 20
133.276657435638
 30
0.0
 11
203.08670454277
 21
133.20763975995
 31
0.0
  0
LINE
  5
3A6
  8
DEFAULT
 10
203.092784881592
 20
133.345566127044
 30
0.0
 11
203.088550108172
 21
133.276653557179
 31
0.0
  0
LINE
  5
3A7
  8
DEFAULT
 10
203.099407196045
 20
133.414291712982
 30
0.0
 11
203.092796350117
 21
133.34556637335
 31
0.0
  0
LINE
  5
3A8
  8
DEFAULT
 10
203.108379364014
 20
133.482757899505
 30
0.0
 11
203.099400323847
 21
133.414301691393
 31
0.0
  0
LINE
  5
3A9
  8
DEFAULT
 10
203.119716644287
 20
133.550857875091
 30
0.0
 11
203.108380110374
 21
133.482752379056
 31
0.0
  0
LINE
  5
3AA
  8
DEFAULT
 10
203.133403778076
 20
133.618530604584
 30
0.0
 11
203.119723260378
 21
133.550856983231
 31
0.0
  0
LINE
  5
3AB
  8
DEFAULT
 10
203.149410247803
 20
133.685684535248
 30
0.0
 11
203.133402049651
 21
133.618523436512
 31
0.0
  0
LINE
  5
3AC
  8
DEFAULT
 10
203.167720794678
 20
133.752258631927
 30
0.0
 11
203.149403993345
 21
133.685690092959
 31
0.0
  0
LINE
  5
3AD
  8
DEFAULT
 10
203.188320159912
 20
133.818161341888
 30
0.0
 11
203.167716583877
 21
133.752264693673
 31
0.0
  0
LINE
  5
3AE
  8
DEFAULT
 10
203.211193084717
 20
133.883301112396
 30
0.0
 11
203.188327287649
 21
133.818154885215
 31
0.0
  0
LINE
  5
3AF
  8
DEFAULT
 10
203.236293792725
 20
133.947616908294
 30
0.0
 11
203.211193024228
 21
133.883298738138
 31
0.0
  0
LINE
  5
3B0
  8
DEFAULT
 10
203.263591766358
 20
134.011032435638
 30
0.0
 11
203.236285939491
 21
133.947618971685
 31
0.0
  0
LINE
  5
3B1
  8
DEFAULT
 10
203.293071746826
 20
134.073471400482
 30
0.0
 11
203.263593402461
 21
134.011038213755
 31
0.0
  0
LINE
  5
3B2
  8
DEFAULT
 10
203.324687957764
 20
134.134842250091
 30
0.0
 11
203.293072225799
 21
134.073463743399
 31
0.0
  0
LINE
  5
3B3
  8
DEFAULT
 10
203.358409881592
 20
134.195099208099
 30
0.0
 11
203.324694439093
 21
134.134848527368
 31
0.0
  0
LINE
  5
3B4
  8
DEFAULT
 10
203.394176483155
 20
134.254150721771
 30
0.0
 11
203.358401509451
 21
134.195099668876
 31
0.0
  0
LINE
  5
3B5
  8
DEFAULT
 10
203.431972503662
 20
134.311920497162
 30
0.0
 11
203.394180632467
 21
134.254139444359
 31
0.0
  0
LINE
  5
3B6
  8
DEFAULT
 10
203.471736907959
 20
134.368362757904
 30
0.0
 11
203.431973176559
 21
134.311920563966
 31
0.0
  0
LINE
  5
3B7
  8
DEFAULT
 10
203.513423919678
 20
134.423401210052
 30
0.0
 11
203.471735715263
 21
134.368365138207
 31
0.0
  0
LINE
  5
3B8
  8
DEFAULT
 10
203.556987762451
 20
134.476974818451
 30
0.0
 11
203.513424765643
 21
134.423410456226
 31
0.0
  0
LINE
  5
3B9
  8
DEFAULT
 10
203.602382659912
 20
134.528992030365
 30
0.0
 11
203.556996785557
 21
134.476963211424
 31
0.0
  0
LINE
  5
3BA
  8
DEFAULT
 10
203.649532318115
 20
134.579437587005
 30
0.0
 11
203.602377653417
 21
134.529006315074
 31
0.0
  0
LINE
  5
3BB
  8
DEFAULT
 10
203.698390960694
 20
134.628204676849
 30
0.0
 11
203.649523700757
 21
134.579431051828
 31
0.0
  0
LINE
  5
3BC
  8
DEFAULT
 10
203.74891281128
 20
134.675262782318
 30
0.0
 11
203.698391192142
 21
134.628204928657
 31
0.0
  0
LINE
  5
3BD
  8
DEFAULT
 10
203.801036834717
 20
134.720550868255
 30
0.0
 11
203.748921063947
 21
134.675264865688
 31
0.0
  0
LINE
  5
3BE
  8
DEFAULT
 10
206.865215301514
 20
137.291702601654
 30
0.0
 11
203.801037529038
 21
134.720552162908
 31
0.0
  0
LINE
  5
3BF
  8
DEFAULT
 10
206.918865203858
 20
137.335159632904
 30
0.0
 11
206.865217388805
 21
137.291699449615
 31
0.0
  0
LINE
  5
3C0
  8
DEFAULT
 10
206.973979949951
 20
137.376739833099
 30
0.0
 11
206.91886402373
 21
137.335157261411
 31
0.0
  0
LINE
  5
3C1
  8
DEFAULT
 10
207.030498504639
 20
137.416397425873
 30
0.0
 11
206.97398014994
 21
137.376742020522
 31
0.0
  0
LINE
  5
3C2
  8
DEFAULT
 10
207.088344573975
 20
137.454071376068
 30
0.0
 11
207.030491144789
 21
137.41639039515
 31
0.0
  0
LINE
  5
3C3
  8
DEFAULT
 10
207.147472381592
 20
137.489746424896
 30
0.0
 11
207.088352822945
 21
137.454084773549
 31
0.0
  0
LINE
  5
3C4
  8
DEFAULT
 10
207.207775115967
 20
137.523346278412
 30
0.0
 11
207.147459881754
 21
137.489746455298
 31
0.0
  0
LINE
  5
3C5
  8
DEFAULT
 10
207.269222259522
 20
137.554840419037
 30
0.0
 11
207.207783228547
 21
137.523342465702
 31
0.0
  0
LINE
  5
3C6
  8
DEFAULT
 10
207.331707000733
 20
137.584198329193
 30
0.0
 11
207.26921739105
 21
137.554839782342
 31
0.0
  0
LINE
  5
3C7
  8
DEFAULT
 10
207.395183563233
 20
137.611374232513
 30
0.0
 11
207.331717844892
 21
137.584190079282
 31
0.0
  0
LINE
  5
3C8
  8
DEFAULT
 10
207.459545135498
 20
137.636352870208
 30
0.0
 11
207.395178941795
 21
137.611375506466
 31
0.0
  0
LINE
  5
3C9
  8
DEFAULT
 10
207.524730682373
 20
137.659103724701
 30
0.0
 11
207.459540719716
 21
137.636362916443
 31
0.0
  0
LINE
  5
3CA
  8
DEFAULT
 10
207.590663909912
 20
137.679581019623
 30
0.0
 11
207.524727866412
 21
137.659103867501
 31
0.0
  0
LINE
  5
3CB
  8
DEFAULT
 10
207.65726852417
 20
137.697769496185
 30
0.0
 11
207.590664977056
 21
137.679580403209
 31
0.0
  0
LINE
  5
3CC
  8
DEFAULT
 10
207.724468231201
 20
137.71363863681
 30
0.0
 11
207.65727655318
 21
137.697759279265
 31
0.0
  0
LINE
  5
3CD
  8
DEFAULT
 10
207.792171478272
 20
137.727188441498
 30
0.0
 11
207.724471742934
 21
137.713637743114
 31
0.0
  0
LINE
  5
3CE
  8
DEFAULT
 10
207.860286712647
 20
137.738403651458
 30
0.0
 11
207.792159599048
 21
137.727197760859
 31
0.0
  0
LINE
  5
3CF
  8
DEFAULT
 10
207.928768157959
 20
137.747253749115
 30
0.0
 11
207.860294854468
 21
137.738406020572
 31
0.0
  0
LINE
  5
3D0
  8
DEFAULT
 10
207.997509002686
 20
137.753723475677
 30
0.0
 11
207.928771110231
 21
137.747244453196
 31
0.0
  0
LINE
  5
3D1
  8
DEFAULT
 10
208.066417694092
 20
137.757828089935
 30
0.0
 11
207.99749712892
 21
137.753725494689
 31
0.0
  0
LINE
  5
3D2
  8
DEFAULT
 10
208.135448455811
 20
137.759552333099
 30
0.0
 11
208.066427351861
 21
137.757831054229
 31
0.0
  0
LINE
  5
3D3
  8
DEFAULT
 10
208.20447921753
 20
137.758896205169
 30
0.0
 11
208.135439828556
 21
137.759558293955
 31
0.0
  0
LINE
  5
3D4
  8
DEFAULT
 10
208.273464202881
 20
137.755844447357
 30
0.0
 11
208.204488804428
 21
137.758889114775
 31
0.0
  0
LINE
  5
3D5
  8
DEFAULT
 10
208.342281341553
 20
137.75042757724
 30
0.0
 11
208.273452132907
 21
137.755851194902
 31
0.0
  0
LINE
  5
3D6
  8
DEFAULT
 10
208.410884857178
 20
137.742630336029
 30
0.0
 11
208.342283863407
 21
137.750426440508
 31
0.0
  0
LINE
  5
3D7
  8
DEFAULT
 10
208.479183197022
 20
137.732467982513
 30
0.0
 11
208.410892171227
 21
137.742627283045
 31
0.0
  0
LINE
  5
3D8
  8
DEFAULT
 10
208.54708480835
 20
137.719955775482
 30
0.0
 11
208.479185134237
 21
137.732466165035
 31
0.0
  0
LINE
  5
3D9
  8
DEFAULT
 10
208.614513397217
 20
137.705108973724
 30
0.0
 11
208.547085992111
 21
137.719955543431
 31
0.0
  0
LINE
  5
3DA
  8
DEFAULT
 10
208.681377410889
 20
137.687942836029
 30
0.0
 11
208.614502629302
 21
137.705107892952
 31
0.0
  0
LINE
  5
3DB
  8
DEFAULT
 10
208.747631072998
 20
137.668472621185
 30
0.0
 11
208.681388610872
 21
137.687935709402
 31
0.0
  0
LINE
  5
3DC
  8
DEFAULT
 10
208.813152313233
 20
137.64674410556
 30
0.0
 11
208.747621112961
 21
137.66848203054
 31
0.0
  0
LINE
  5
3DD
  8
DEFAULT
 10
208.877895355225
 20
137.622757289154
 30
0.0
 11
208.813153511578
 21
137.646744145401
 31
0.0
  0
LINE
  5
3DE
  8
DEFAULT
 10
208.941768646241
 20
137.596542689544
 30
0.0
 11
208.877893313296
 21
137.622749891469
 31
0.0
  0
LINE
  5
3DF
  8
DEFAULT
 10
209.004711151123
 20
137.568146083099
 30
0.0
 11
208.941778450324
 21
137.596542399084
 31
0.0
  0
LINE
  5
3E0
  8
DEFAULT
 10
209.06661605835
 20
137.537597987396
 30
0.0
 11
209.004700987783
 21
137.568149577014
 31
0.0
  0
LINE
  5
3E1
  8
DEFAULT
 10
209.127437591553
 20
137.504928920013
 30
0.0
 11
209.066613936579
 21
137.537599374358
 31
0.0
  0
LINE
  5
3E2
  8
DEFAULT
 10
209.187099456787
 20
137.470184657318
 30
0.0
 11
209.127439702106
 21
137.504935042391
 31
0.0
  0
LINE
  5
3E3
  8
DEFAULT
 10
209.245525360108
 20
137.433395716888
 30
0.0
 11
209.187100603375
 21
137.47018462
 31
0.0
  0
LINE
  5
3E4
  8
DEFAULT
 10
209.302654266358
 20
137.394607875091
 30
0.0
 11
209.245534133461
 21
137.43339145421
 31
0.0
  0
LINE
  5
3E5
  8
DEFAULT
 10
209.358394622803
 20
137.353882167084
 30
0.0
 11
209.302647184883
 21
137.394614203085
 31
0.0
  0
LINE
  5
3E6
  8
DEFAULT
 10
209.412700653076
 20
137.311249110443
 30
0.0
 11
209.35839234541
 21
137.35388106219
 31
0.0
  0
LINE
  5
3E7
  8
DEFAULT
 10
209.465511322022
 20
137.266754481537
 30
0.0
 11
209.412706864844
 21
137.311235543728
 31
0.0
  0
LINE
  5
3E8
  8
DEFAULT
 10
209.516750335694
 20
137.220489833099
 30
0.0
 11
209.465512657075
 21
137.266766996811
 31
0.0
  0
LINE
  5
3E9
  8
DEFAULT
 10
209.566356658936
 20
137.172470423919
 30
0.0
 11
209.516746819786
 21
137.220488539782
 31
0.0
  0
LINE
  5
3EA
  8
DEFAULT
 10
209.614284515381
 20
137.122757289154
 30
0.0
 11
209.566361636683
 21
137.172459133071
 31
0.0
  0
LINE
  5
3EB
  8
DEFAULT
 10
209.660457611084
 20
137.071441981537
 30
0.0
 11
209.614278803438
 21
137.122768322881
 31
0.0
  0
LINE
  5
3EC
  8
DEFAULT
 10
209.704845428467
 20
137.018555018646
 30
0.0
 11
209.66046572403
 21
137.071444690847
 31
0.0
  0
LINE
  5
3ED
  8
DEFAULT
 10
209.747371673584
 20
136.964157435638
 30
0.0
 11
209.704843960489
 21
137.018547409074
 31
0.0
  0
LINE
  5
3EE
  8
DEFAULT
 10
209.787990570069
 20
136.908340785248
 30
0.0
 11
209.747365529395
 21
136.964166242359
 31
0.0
  0
LINE
  5
3EF
  8
DEFAULT
 10
209.826671600342
 20
136.851135585052
 30
0.0
 11
209.787997645718
 21
136.908329997587
 31
0.0
  0
LINE
  5
3F0
  8
DEFAULT
 10
209.863338470459
 20
136.792648646576
 30
0.0
 11
209.826661690368
 21
136.851143854872
 31
0.0
  0
LINE
  5
3F1
  8
DEFAULT
 10
209.897975921631
 20
136.732910487396
 30
0.0
 11
209.863340024485
 21
136.792636781608
 31
0.0
  0
LINE
  5
3F2
  8
DEFAULT
 10
209.930538177491
 20
136.672027919037
 30
0.0
 11
209.897984439542
 21
136.732914122211
 31
0.0
  0
LINE
  5
3F3
  8
DEFAULT
 10
209.960964202881
 20
136.610061976654
 30
0.0
 11
209.930531419035
 21
136.672035529552
 31
0.0
  0
LINE
  5
3F4
  8
DEFAULT
 10
209.989238739014
 20
136.547073695404
 30
0.0
 11
209.960963176594
 21
136.610060742971
 31
0.0
  0
LINE
  5
3F5
  8
DEFAULT
 10
210.015331268311
 20
136.483139369232
 30
0.0
 11
209.989246623839
 21
136.547064848614
 31
0.0
  0
LINE
  5
3F6
  8
DEFAULT
 10
210.039180755615
 20
136.418350550873
 30
0.0
 11
210.015318114656
 21
136.483138280867
 31
0.0
  0
LINE
  5
3F7
  8
DEFAULT
 10
210.060802459717
 20
136.352783534271
 30
0.0
 11
210.039190259829
 21
136.418356306116
 31
0.0
  0
LINE
  5
3F8
  8
DEFAULT
 10
210.080135345459
 20
136.286499354584
 30
0.0
 11
210.060799342311
 21
136.352779023968
 31
0.0
  0
LINE
  5
3F9
  8
DEFAULT
 10
210.097164154053
 20
136.219604823334
 30
0.0
 11
210.080127390724
 21
136.286512403522
 31
0.0
  0
LINE
  5
3FA
  8
DEFAULT
 10
210.111888885498
 20
136.152145716888
 30
0.0
 11
210.097171665022
 21
136.219601472854
 31
0.0
  0
LINE
  5
3FB
  8
DEFAULT
 10
210.124263763428
 20
136.084213587982
 30
0.0
 11
210.111883624593
 21
136.152137131425
 31
0.0
  0
LINE
  5
3FC
  8
DEFAULT
 10
210.134304046631
 20
136.015915248138
 30
0.0
 11
210.124275743084
 21
136.084225633289
 31
0.0
  0
LINE
  5
3FD
  8
DEFAULT
 10
210.141963958741
 20
135.947296473724
 30
0.0
 11
210.1342994414
 21
136.015912293805
 31
0.0
  0
LINE
  5
3FE
  8
DEFAULT
 10
210.147258758545
 20
135.878448817474
 30
0.0
 11
210.141967161361
 21
135.947288301716
 31
0.0
  0
LINE
  5
3FF
  8
DEFAULT
 10
210.150173187256
 20
135.809463832123
 30
0.0
 11
210.147260816325
 21
135.878444943211
 31
0.0
  0
LINE
  5
400
  8
DEFAULT
 10
210.150691986084
 20
135.740433070404
 30
0.0
 11
210.150162312133
 21
135.809473602245
 31
0.0
  0
LINE
  5
401
  8
DEFAULT
 10
210.148845672608
 20
135.671417567474
 30
0.0
 11
210.150699326859
 21
135.740435243162
 31
0.0
  0
LINE
  5
402
  8
DEFAULT
 10
210.144603729248
 20
135.602493617279
 30
0.0
 11
210.148838502668
 21
135.671406187145
 31
0.0
  0
LINE
  5
403
  8
DEFAULT
 10
210.137996673584
 20
135.533768031341
 30
0.0
 11
210.144607519513
 21
135.602493370973
 31
0.0
  0
LINE
  5
404
  8
DEFAULT
 10
210.129024505615
 20
135.465317103607
 30
0.0
 11
210.138003545782
 21
135.533773311719
 31
0.0
  0
LINE
  5
405
  8
DEFAULT
 10
210.117687225342
 20
135.397217128021
 30
0.0
 11
210.129023759255
 21
135.465322624057
 31
0.0
  0
LINE
  5
406
  8
DEFAULT
 10
210.104000091553
 20
135.329544398529
 30
0.0
 11
210.117680609251
 21
135.397218019881
 31
0.0
  0
LINE
  5
407
  8
DEFAULT
 10
210.087993621826
 20
135.262375209076
 30
0.0
 11
210.104001819978
 21
135.329536307811
 31
0.0
  0
LINE
  5
408
  8
DEFAULT
 10
210.069667816162
 20
135.195816371185
 30
0.0
 11
210.087984617495
 21
135.262384910153
 31
0.0
  0
LINE
  5
409
  8
DEFAULT
 10
210.049068450928
 20
135.129913661224
 30
0.0
 11
210.069672026964
 21
135.195810309439
 31
0.0
  0
LINE
  5
40A
  8
DEFAULT
 10
210.026210784912
 20
135.064773890716
 30
0.0
 11
210.04907658198
 21
135.129920117897
 31
0.0
  0
LINE
  5
40B
  8
DEFAULT
 10
210.001110076905
 20
135.000442836029
 30
0.0
 11
210.026210845402
 21
135.064761006185
 31
0.0
  0
LINE
  5
40C
  8
DEFAULT
 10
209.973796844483
 20
134.937042567474
 30
0.0
 11
210.001102671349
 21
135.000456031428
 31
0.0
  0
LINE
  5
40D
  8
DEFAULT
 10
209.944316864014
 20
134.87460360263
 30
0.0
 11
209.97379520838
 21
134.937036789357
 31
0.0
  0
LINE
  5
40E
  8
DEFAULT
 10
209.912700653076
 20
134.813217494232
 30
0.0
 11
209.944316385042
 21
134.874596000924
 31
0.0
  0
LINE
  5
40F
  8
DEFAULT
 10
209.878993988037
 20
134.752975795013
 30
0.0
 11
209.912709430537
 21
134.813226475744
 31
0.0
  0
LINE
  5
410
  8
DEFAULT
 10
209.843212127686
 20
134.693924281341
 30
0.0
 11
209.878987101389
 21
134.752975334236
 31
0.0
  0
LINE
  5
411
  8
DEFAULT
 10
209.805416107178
 20
134.636139247162
 30
0.0
 11
209.843207978373
 21
134.693920299964
 31
0.0
  0
LINE
  5
412
  8
DEFAULT
 10
209.765651702881
 20
134.579696986419
 30
0.0
 11
209.805415434281
 21
134.636139180358
 31
0.0
  0
LINE
  5
413
  8
DEFAULT
 10
209.723964691162
 20
134.524658534271
 30
0.0
 11
209.765652895577
 21
134.579694606116
 31
0.0
  0
LINE
  5
414
  8
DEFAULT
 10
209.680400848389
 20
134.471100184662
 30
0.0
 11
209.723963845197
 21
134.524664546886
 31
0.0
  0
LINE
  5
415
  8
DEFAULT
 10
209.635021209717
 20
134.419067713958
 30
0.0
 11
209.680407084073
 21
134.4710965329
 31
0.0
  0
LINE
  5
416
  8
DEFAULT
 10
209.587871551514
 20
134.368637416107
 30
0.0
 11
209.635026216212
 21
134.419068688038
 31
0.0
  0
LINE
  5
417
  8
DEFAULT
 10
209.538997650147
 20
134.319870326263
 30
0.0
 11
209.587864910083
 21
134.368643951285
 31
0.0
  0
LINE
  5
418
  8
DEFAULT
 10
209.488475799561
 20
134.272812220794
 30
0.0
 11
209.538997418698
 21
134.319870074456
 31
0.0
  0
LINE
  5
419
  8
DEFAULT
 10
209.436367034912
 20
134.227524134857
 30
0.0
 11
209.488482805682
 21
134.272810137424
 31
0.0
  0
LINE
  5
41A
  8
DEFAULT
 10
206.372188568115
 20
131.656372401458
 30
0.0
 11
209.436366340591
 21
134.227522840205
 31
0.0
  0
LINE
  5
41B
  8
DEFAULT
 10
206.318538665772
 20
131.612915370208
 30
0.0
 11
206.372186480825
 21
131.656375553497
 31
0.0
  0
LINE
  5
41C
  8
DEFAULT
 10
206.263423919678
 20
131.571335170013
 30
0.0
 11
206.3185398459
 21
131.612917741701
 31
0.0
  0
LINE
  5
41D
  8
DEFAULT
 10
206.206905364991
 20
131.53167757724
 30
0.0
 11
206.26342371969
 21
131.57133298259
 31
0.0
  0
LINE
  5
41E
  8
DEFAULT
 10
206.149044036865
 20
131.493988368255
 30
0.0
 11
206.206897466051
 21
131.531669349173
 31
0.0
  0
LINE
  5
41F
  8
DEFAULT
 10
206.089931488037
 20
131.458328578216
 30
0.0
 11
206.149051046684
 21
131.493990229564
 31
0.0
  0
LINE
  5
420
  8
DEFAULT
 10
206.029613494873
 20
131.424728724701
 30
0.0
 11
206.089928729087
 21
131.458328547814
 31
0.0
  0
LINE
  5
421
  8
DEFAULT
 10
205.968181610108
 20
131.393234584076
 30
0.0
 11
206.029620641083
 21
131.424732537411
 31
0.0
  0
LINE
  5
422
  8
DEFAULT
 10
205.905681610108
 20
131.363876673919
 30
0.0
 11
205.96817121979
 21
131.39323522077
 31
0.0
  0
LINE
  5
423
  8
DEFAULT
 10
205.842220306397
 20
131.33668551181
 30
0.0
 11
205.905686024738
 21
131.363869665041
 31
0.0
  0
LINE
  5
424
  8
DEFAULT
 10
205.777858734131
 20
131.311706874115
 30
0.0
 11
205.842224927835
 21
131.336684237857
 31
0.0
  0
LINE
  5
425
  8
DEFAULT
 10
205.712657928467
 20
131.288971278412
 30
0.0
 11
205.777847891124
 21
131.311712086669
 31
0.0
  0
LINE
  5
426
  8
DEFAULT
 10
205.646724700928
 20
131.26849398349
 30
0.0
 11
205.712660744428
 21
131.288971135611
 31
0.0
  0
LINE
  5
427
  8
DEFAULT
 10
205.58012008667
 20
131.250305506927
 30
0.0
 11
205.646723633784
 21
131.268494599904
 31
0.0
  0
LINE
  5
428
  8
DEFAULT
 10
205.512935638428
 20
131.234421107513
 30
0.0
 11
205.58012731645
 21
131.250300465059
 31
0.0
  0
LINE
  5
429
  8
DEFAULT
 10
205.445232391358
 20
131.220871302826
 30
0.0
 11
205.512932126695
 21
131.23442200121
 31
0.0
  0
LINE
  5
42A
  8
DEFAULT
 10
205.377101898194
 20
131.209671351654
 30
0.0
 11
205.445229011793
 21
131.220877242253
 31
0.0
  0
LINE
  5
42B
  8
DEFAULT
 10
205.30863571167
 20
131.200821253998
 30
0.0
 11
205.377109015162
 21
131.20966898254
 31
0.0
  0
LINE
  5
42C
  8
DEFAULT
 10
205.239894866944
 20
131.194336268646
 30
0.0
 11
205.308632759398
 21
131.200815291127
 31
0.0
  0
LINE
  5
42D
  8
DEFAULT
 10
205.170970916748
 20
131.190246913177
 30
0.0
 11
205.239891481921
 21
131.194349508423
 31
0.0
  0
LINE
  5
42E
  8
DEFAULT
 10
205.101955413819
 20
131.188522670013
 30
0.0
 11
205.170976517769
 21
131.190243948884
 31
0.0
  0
LINE
  5
42F
  8
DEFAULT
 10
223.0
 20
43.34374835648728
 30
0.0
 11
257.0
 21
43.34374835648728
 31
0.0
  0
LINE
  5
430
  8
DEFAULT
 10
223.0
 20
72.34375026383529
 30
0.0
 11
222.999999999922
 21
43.34375026383529
 31
0.0
  0
LINE
  5
431
  8
DEFAULT
 10
228.0
 20
90.34375026383529
 30
0.0
 11
222.999999995608
 21
72.34375026383529
 31
0.0
  0
LINE
  5
432
  8
DEFAULT
 10
257.0
 20
43.34374835648728
 30
0.0
 11
257.0
 21
65.3437483490363
 31
0.0
  0
CIRCLE
  5
433
  8
DEFAULT
 10
250.000001349632
 20
58.34374483220628
 30
0.0
 40
2.499999956992
  0
CIRCLE
  5
434
  8
DEFAULT
 10
229.999999596544
 20
58.34374483220628
 30
0.0
 40
2.499999956992
  0
LINE
  5
435
  8
DEFAULT
 10
257.0
 20
65.34374644913831
 30
0.0
 11
251.0
 21
90.34374645658929
 31
0.0
  0
LINE
  5
436
  8
DEFAULT
 10
251.0
 20
90.34375026383529
 30
0.0
 11
251.0
 21
123.3437502638353
 31
0.0
  0
LINE
  5
437
  8
DEFAULT
 10
251.0
 20
123.3437502638353
 30
0.0
 11
228.0
 21
123.3437502638353
 31
0.0
  0
LINE
  5
438
  8
DEFAULT
 10
228.0
 20
123.3437502638353
 30
0.0
 11
228.00000000447
 21
90.34375026383529
 31
0.0
  0
CIRCLE
  5
439
  8
DEFAULT
 10
231.999994738688
 20
107.3437463477263
 30
0.0
 40
1.5
  0
CIRCLE
  5
43A
  8
DEFAULT
 10
245.999994288128
 20
107.3437463477263
 30
0.0
 40
1.5
  0
CIRCLE
  5
43B
  8
DEFAULT
 10
354.436672210694
 20
191.689636561615
 30
-0.0000000000000018
 40
1.5
  0
CIRCLE
  5
43C
  8
DEFAULT
 10
354.436672210694
 20
167.689636561615
 30
-0.0000000000000018
 40
1.5
  0
CIRCLE
  5
43D
  8
DEFAULT
 10
338.436672210694
 20
164.689636561615
 30
0.0
 40
2.5
  0
CIRCLE
  5
43E
  8
DEFAULT
 10
370.436679840089
 20
164.689636561615
 30
0.0
 40
2.5
  0
CIRCLE
  5
43F
  8
DEFAULT
 10
308.436672210694
 20
179.689636561615
 30
-0.0000000000000009
 40
12.0
  0
CIRCLE
  5
440
  8
DEFAULT
 10
314.436672210694
 20
127.689636561615
 30
-0.0000000000000009
 40
2.5
  0
CIRCLE
  5
441
  8
DEFAULT
 10
314.436672210694
 20
147.689636561615
 30
0.0
 40
2.5
  0
CIRCLE
  5
442
  8
DEFAULT
 10
354.436672210694
 20
179.689636561615
 30
0.0
 40
9.5
  0
LINE
  5
443
  8
DEFAULT
 10
377.032581329347
 20
168.2595218155209
 30
0.0
 11
364.436679311569
 21
191.532356421309
 31
0.0
  0
LINE
  5
444
  8
DEFAULT
 10
364.436679840089
 20
191.5323794815359
 30
0.0
 11
364.436679840089
 21
205.68966020368
 31
0.0
  0
LINE
  5
445
  8
DEFAULT
 10
364.436679840089
 20
205.689636561615
 30
0.0
 11
304.436679840089
 21
205.689636561615
 31
0.0
  0
LINE
  5
446
  8
DEFAULT
 10
304.436672210694
 20
205.689636561615
 30
0.0
 11
304.436672210694
 21
201.689636561615
 31
0.0
  0
LINE
  5
447
  8
DEFAULT
 10
304.436672210694
 20
201.689636561615
 30
0.0
 11
286.436672210694
 21
201.689636561615
 31
0.0
  0
LINE
  5
448
  8
DEFAULT
 10
286.436672210694
 20
201.689636561615
 30
0.0
 11
286.436672210694
 21
158.689636561615
 31
0.0
  0
LINE
  5
449
  8
DEFAULT
 10
286.436672210694
 20
158.689636561615
 30
0.0
 11
304.436672210694
 21
158.689636561615
 31
0.0
  0
LINE
  5
44A
  8
DEFAULT
 10
304.436672210694
 20
158.689636561615
 30
0.0
 11
304.436672210694
 21
121.689636561615
 31
0.0
  0
LINE
  5
44B
  8
DEFAULT
 10
304.436672210694
 20
121.689636561615
 30
0.0
 11
324.436672210694
 21
121.689636561615
 31
0.0
  0
LINE
  5
44C
  8
DEFAULT
 10
324.436672210694
 20
121.689636561615
 30
0.0
 11
324.436672210694
 21
152.689636561615
 31
0.0
  0
ARC
  5
44D
  8
DEFAULT
 10
324.436672210694
 20
153.689636561615
 30
0.0
 40
1.0
 50
0.0
 51
270.0
  0
LINE
  5
44E
  8
DEFAULT
 10
325.436672210694
 20
153.689636561615
 30
0.0
 11
364.436672210694
 21
153.689636561615
 31
0.0
  0
LINE
  5
44F
  8
DEFAULT
 10
364.436679840089
 20
153.689636561615
 30
0.0
 11
373.561443985759
 21
157.871583391249
 31
0.0
  0
ARC
  5
450
  8
DEFAULT
 10
370.436679840089
 20
164.689636561615
 30
0.0
 40
7.5
 50
294.6223363252631
 51
28.42347810577813
  0
ARC
  5
451
  8
DEFAULT
 10
324.936672210694
 20
164.78964266513
 30
0.0
 40
1.5
 50
269.9999999999956
 51
90.0
  0
LINE
  5
452
  8
DEFAULT
 10
324.936672210694
 20
166.28964266513
 30
0.0
 11
322.936672210694
 21
166.28964266513
 31
0.0
  0
ARC
  5
453
  8
DEFAULT
 10
322.936672210694
 20
164.78964266513
 30
0.0
 40
1.5
 50
90.0
 51
270.0
  0
LINE
  5
454
  8
DEFAULT
 10
322.936672210694
 20
163.28964266513
 30
0.0
 11
324.936672210694
 21
163.28964266513
 31
0.0
  0
LINE
  5
455
  8
DEFAULT
 10
322.936672210694
 20
194.28964266513
 30
0.0
 11
324.936672210694
 21
194.28964266513
 31
0.0
  0
ARC
  5
456
  8
DEFAULT
 10
324.936672210694
 20
195.78964266513
 30
0.0
 40
1.5
 50
269.9999999999956
 51
90.0
  0
LINE
  5
457
  8
DEFAULT
 10
324.936672210694
 20
197.28964266513
 30
0.0
 11
322.936672210694
 21
197.28964266513
 31
0.0
  0
ARC
  5
458
  8
DEFAULT
 10
322.936672210694
 20
195.78964266513
 30
-0.0000000000000009
 40
1.5
 50
90.0
 51
270.0
  0
ARC
  5
459
  8
DEFAULT
 10
293.936672210694
 20
164.78964266513
 30
-0.0000000000000018
 40
1.5
 50
270.0
 51
89.99999999999567
  0
LINE
  5
45A
  8
DEFAULT
 10
293.936672210694
 20
166.28964266513
 30
0.0
 11
291.936672210694
 21
166.28964266513
 31
0.0
  0
ARC
  5
45B
  8
DEFAULT
 10
291.936672210694
 20
164.78964266513
 30
0.0
 40
1.5
 50
90.0
 51
270.0
  0
LINE
  5
45C
  8
DEFAULT
 10
291.936672210694
 20
163.28964266513
 30
0.0
 11
293.936672210694
 21
163.28964266513
 31
0.0
  0
ARC
  5
45D
  8
DEFAULT
 10
293.936672210694
 20
195.78964266513
 30
-0.0000000000000009
 40
1.5
 50
269.9999999999956
 51
90.0
  0
LINE
  5
45E
  8
DEFAULT
 10
293.936672210694
 20
197.28964266513
 30
0.0
 11
291.936672210694
 21
197.28964266513
 31
0.0
  0
ARC
  5
45F
  8
DEFAULT
 10
291.936672210694
 20
195.78964266513
 30
0.0
 40
1.5
 50
90.0
 51
269.9999999999956
  0
LINE
  5
460
  8
DEFAULT
 10
291.936672210694
 20
194.28964266513
 30
0.0
 11
293.936672210694
 21
194.28964266513
 31
0.0
  0
CIRCLE
  5
461
  8
DEFAULT
 10
354.436672210694
 20
167.689636561615
 30
-0.0000000000000018
 40
1.2495
  0
CIRCLE
  5
462
  8
DEFAULT
 10
354.436672210694
 20
191.689636561615
 30
-0.0000000000000018
 40
1.2495
  0
CIRCLE
  5
463
  8
DEFAULT
 10
346.704067230225
 20
130.197800013763
 30
0.0
 40
9.5
  0
CIRCLE
  5
464
  8
DEFAULT
 10
333.704067230225
 20
130.197800013763
 30
0.0
 40
2.0
  0
CIRCLE
  5
465
  8
DEFAULT
 10
359.704067230225
 20
130.197800013763
 30
0.0
 40
2.0
  0
CIRCLE
  5
466
  8
DEFAULT
 10
354.704067230225
 20
70.197800013763
 30
0.0
 40
2.5
  0
CIRCLE
  5
467
  8
DEFAULT
 10
339.635890960694
 20
70.197800013763
 30
0.0
 40
2.5
  0
CIRCLE
  5
468
  8
DEFAULT
 10
339.635890960694
 20
90.197800013763
 30
0.0
 40
2.5
  0
CIRCLE
  5
469
  8
DEFAULT
 10
354.704067230225
 20
90.197800013763
 30
0.0
 40
2.5
  0
CIRCLE
  5
46A
  8
DEFAULT
 10
346.704067230225
 20
30.197800013763
 30
0.0
 40
20.0
  0
LINE
  5
46B
  8
DEFAULT
 10
316.704067230225
 20
60.197800013763
 30
0.0
 11
316.704067237675
 21
0.1978000137630005
 31
0.0
  0
LINE
  5
46C
  8
DEFAULT
 10
316.704067230225
 20
0.1977981064150001
 30
0.0
 11
376.704067222774
 21
0.1977981064140018
 31
0.0
  0
LINE
  5
46D
  8
DEFAULT
 10
376.704067230225
 20
0.1977981064150001
 30
0.0
 11
376.704067230225
 21
140.197798106414
 31
0.0
  0
LINE
  5
46E
  8
DEFAULT
 10
376.704067230225
 20
140.197800013763
 30
0.0
 11
352.731161861096
 21
148.216516125609
 31
0.0
  0
ARC
  5
46F
  8
DEFAULT
 10
346.704067230225
 20
130.197800013763
 30
0.0
 40
19.00000000447
 50
71.50538615166403
 51
180.0
  0
LINE
  5
470
  8
DEFAULT
 10
327.704067230225
 20
130.197800013763
 30
0.0
 11
327.704067230225
 21
100.197800018234
 31
0.0
  0
LINE
  5
471
  8
DEFAULT
 10
327.704067230225
 20
100.197800013763
 30
0.0
 11
316.704067234695
 21
60.197800013763
 31
0.0
  0
LINE
  5
472
  8
DEFAULT
 10
320.604061126709
 20
54.79779848788399
 30
0.0
 11
320.604061126709
 21
52.79779848788399
 31
0.0
  0
ARC
  5
473
  8
DEFAULT
 10
323.104061126709
 20
52.79779848788399
 30
0.0
 40
2.5
 50
180.0
 51
0.0
  0
LINE
  5
474
  8
DEFAULT
 10
325.604061126709
 20
52.79779848788399
 30
0.0
 11
325.604061126709
 21
54.79779848788399
 31
0.0
  0
ARC
  5
475
  8
DEFAULT
 10
323.104061126709
 20
54.79779848788399
 30
0.0
 40
2.5
 50
0.0
 51
180.0
  0
LINE
  5
476
  8
DEFAULT
 10
320.604061126709
 20
7.597799632293
 30
0.0
 11
320.604061126709
 21
5.597799632293
 31
0.0
  0
ARC
  5
477
  8
DEFAULT
 10
323.104061126709
 20
5.597799632293
 30
0.0
 40
2.5
 50
180.0
 51
0.0
  0
LINE
  5
478
  8
DEFAULT
 10
325.604061126709
 20
5.597799632293
 30
0.0
 11
325.604061126709
 21
7.597799632293
 31
0.0
  0
ARC
  5
479
  8
DEFAULT
 10
323.104061126709
 20
7.597799632293
 30
0.0
 40
2.5
 50
0.0
 51
180.0
  0
LINE
  5
47A
  8
DEFAULT
 10
343.504085540772
 20
93.697800013763
 30
0.0
 11
343.504085540772
 21
86.697800013763
 31
0.0
  0
LINE
  5
47B
  8
DEFAULT
 10
343.504085540772
 20
86.697800013763
 30
0.0
 11
350.904085531831
 21
86.697800013763
 31
0.0
  0
LINE
  5
47C
  8
DEFAULT
 10
350.904079437256
 20
86.697800013763
 30
0.0
 11
350.904079437256
 21
93.697800013763
 31
0.0
  0
LINE
  5
47D
  8
DEFAULT
 10
350.904079437256
 20
93.697800013763
 30
0.0
 11
343.504079446197
 21
93.697800013763
 31
0.0
  0
LINE
  5
47E
  8
DEFAULT
 10
343.504085540772
 20
73.697800013763
 30
0.0
 11
343.504085540772
 21
66.697800013763
 31
0.0
  0
LINE
  5
47F
  8
DEFAULT
 10
343.504085540772
 20
66.697800013763
 30
0.0
 11
350.904085531831
 21
66.697800013763
 31
0.0
  0
LINE
  5
480
  8
DEFAULT
 10
350.904079437256
 20
66.697800013763
 30
0.0
 11
350.904079437256
 21
73.697800013763
 31
0.0
  0
LINE
  5
481
  8
DEFAULT
 10
350.904079437256
 20
73.697800013763
 30
0.0
 11
343.504079446197
 21
73.697800013763
 31
0.0
  0
LINE
  5
482
  8
DEFAULT
 10
364.686061859131
 20
93.697800013763
 30
0.0
 11
364.686061859131
 21
86.697800013763
 31
0.0
  0
LINE
  5
483
  8
DEFAULT
 10
364.686061859131
 20
86.697800013763
 30
0.0
 11
372.08606185019
 21
86.697800013763
 31
0.0
  0
LINE
  5
484
  8
DEFAULT
 10
372.086055755615
 20
86.697800013763
 30
0.0
 11
372.086055755615
 21
93.697800013763
 31
0.0
  0
LINE
  5
485
  8
DEFAULT
 10
372.086055755615
 20
93.697800013763
 30
0.0
 11
364.686055764556
 21
93.697800013763
 31
0.0
  0
LINE
  5
486
  8
DEFAULT
 10
364.686061859131
 20
73.697800013763
 30
0.0
 11
364.686061859131
 21
66.697800013763
 31
0.0
  0
LINE
  5
487
  8
DEFAULT
 10
364.686061859131
 20
66.697800013763
 30
0.0
 11
372.08606185019
 21
66.697800013763
 31
0.0
  0
LINE
  5
488
  8
DEFAULT
 10
372.086055755615
 20
66.697800013763
 30
0.0
 11
372.086055755615
 21
73.697800013763
 31
0.0
  0
LINE
  5
489
  8
DEFAULT
 10
372.086055755615
 20
73.697800013763
 30
0.0
 11
364.686055764556
 21
73.697800013763
 31
0.0
  0
LINE
  5
48A
  8
DEFAULT
 10
367.804073333741
 20
54.79779848788399
 30
0.0
 11
367.804073333741
 21
52.79779848788399
 31
0.0
  0
ARC
  5
48B
  8
DEFAULT
 10
370.304073333741
 20
52.79779848788399
 30
0.0
 40
2.5
 50
180.0
 51
0.0
  0
LINE
  5
48C
  8
DEFAULT
 10
372.804073333741
 20
52.79779848788399
 30
0.0
 11
372.804073333741
 21
54.79779848788399
 31
0.0
  0
ARC
  5
48D
  8
DEFAULT
 10
370.304073333741
 20
54.79779848788399
 30
0.0
 40
2.5
 50
0.0
 51
180.0
  0
LINE
  5
48E
  8
DEFAULT
 10
367.804073333741
 20
7.597799632293
 30
0.0
 11
367.804073333741
 21
5.597799632293
 31
0.0
  0
ARC
  5
48F
  8
DEFAULT
 10
370.304073333741
 20
5.597799632293
 30
0.0
 40
2.5
 50
180.0
 51
0.0
  0
LINE
  5
490
  8
DEFAULT
 10
372.804073333741
 20
5.597799632293
 30
0.0
 11
372.804073333741
 21
7.597799632293
 31
0.0
  0
ARC
  5
491
  8
DEFAULT
 10
370.304073333741
 20
7.597799632293
 30
0.0
 40
2.5
 50
0.0
 51
180.0
  0
ENDSEC
  0
EOF
